» » »

Keane - This Is The Last Time Tabs

Artists:  A B C D E F G H I J K L M N O P Q R S T U V W X Y Z # 

This Is The Last Time Tabs

(ver. 1) Click to play this song!
Keane
 Rating:
4/5 (4 votes)


 This Is The Last Time lessons Tabs too difficult? Try these video lessons and learn fast
 
                Its my first tab, but i studied keane for ages. Excellent chords, i love em'. Sounds
dead good with an acoustic backing and an electric for the plucking guitar 2 part with
a bass. (unfortunately i dont have a bass so cannot arrange it for the bass) :-) sorry.
will try to do that soon. thanx.


 Guitar 1
(plucking)
     this is the last time... that i will say these words i rem..
e -----------------------------------------------------------|
B ---3---3---3-3---3---3------1---1---1-3-3---3--------------|
G ---0-0-0-0-0-x---x---x------0-0-0-0-0-0-0-0-0--------------|
D -------------4-4-4-4-4-------------------------------------|
A -----------------------------------------------------------|
E -----------------------------------------------------------|

Guitar 2
(strumming)

      G                  Gmaj7     C/G              G
e ----3------------------2---------0----------------3-----------|
B ----0------------------0---------1----------------------------|
G ----0------------------0---------0----------------------------|
D ----0------------------0---------2----------------------------|
A ----2------------------2---------3----------------2-----------|
E ----3------------------3---------3----------------3-----------|

Guitar 1
(plucking)
     ember the first time... etc.
e -----------------------------------------------------------|
B ---3---3---3-3---3---3-1---1---1-3-3---3-------------------|
G ---0-0-0-0-0-x---x---x-0-0-0-0-0-0-0-0-0-------------------|
D -------------4-4-4-4-4-------------------------------------|
A -----------------------------------------------------------|
E -----------------------------------------------------------|

Guitar 2
(strumming)
      G                  Gmaj7     C/G              G
e ----3------------------2---------0----------------3-----------|
B ----0------------------0---------1----------------------------|
G ----0------------------0---------0----------------------------|
D ----0------------------0---------2----------------------------|
A ----2------------------2---------3----------------2-----------|
E ----3------------------3---------3----------------3-----------|

                        REPEAT
                         UNTIL

Guitar 1
(plucking)
     something i wasn't sure of... but i was in the middle of
e -------------0-0----------------------0-0-0-------------------|
B -------------0-0--0-3-3---------------0-0-0----0-3-2----------|
G -------------0-0----4-4---------------0-0-0----0-2-2----------|
D --------------------4-4---------------------------------------|
A --------------------------------------------------------------|
E --------------------------------------------------------------|

Guitar 2
(strumming)
              Cmaj7          Bm        Em
e -------------0-------------2----------0------------------------|
B -------------0-------------3----------0------------------------|
G -------------0-------------4----------0------------------------|
D -------------2-------------4----------2------------------------|
A -------------3-------------2----------2------------------------|
E --------------------------------------0------------------------|

Guitar 1
(plucking)
   middle of..
e ---------------------------|
B ----------------0-3-2------|
G ----------------0-2-2------|
D ---------------------------|
A ---------------------------|
E ---------------------------|

Guitar 2
(strumming)
  middle of...
              Asus4   A
e -------------0------0--------|
B -------------3------2--------|
G -------------2------2--------|
D -------------2------2--------|
A -------------0------0--------|
E -----------------------------|


Guitar 1
(plucking)
     something i forget now... but i've seen to little of
e -------------0-0----------------------0-0-0-------------------|
B -------------0-0--0-3-3---------------0-0-0----0-3-2----------|
G -------------0-0----4-4---------------0-0-0----0-2-2----------|
D --------------------4-4---------------------------------------|
A --------------------------------------------------------------|
E --------------------------------------------------------------|

Guitar 2
(strumming)
              Cmaj7          Bm        Em
e -------------0-------------2----------0------------------------|
B -------------0-------------3----------0------------------------|
G -------------0-------------4----------0------------------------|
D -------------2-------------4----------2------------------------|
A -------------3-------------2----------2------------------------|
E --------------------------------------0------------------------|

Guitar 1
(plucking)
   little of..
e ------------------------------|
B ----------------0-3-----------|
G ----------------0-2-2---------|
D ------------------4-4---------|
A --------------------5---------|
E ------------------------------|

Guitar 2
(strumming)
  little of...
                 D/F#
e ---------------2-----------|
B ---------------3-----------|
G ---------------2-----------|
D ---------------0-----------|
A ---------------0-----------|
E ---------------2-----------|

More coming soon....

chords are G, Bm, Am, D7 and Em for you eager ones
            
Submit corrections



        This Is The Last Time lessons Hard to play? Try these video lessons and learn fast This Is The Last Time lessons
        
↑ Back to top | Tablatures and chords for acoustic guitar and electric guitar, ukulele, drums are parodies/interpretations of the original songs. You may use it for private study, scholarship, research or language learning purposes only