» » »

Keane - Spiralling Bass

Artists:  A B C D E F G H I J K L M N O P Q R S T U V W X Y Z # 

Spiralling Bass

(ver. 2) Click to play this song!
Keane
 Rating:
4/5 (4 votes)


 Spiralling lessons Tabs too difficult? Try these video lessons and learn fast
 
                Intro:

G ---------------------------|
D -4-4-----------------------|
A -----4-----------1-1-------|
E -------2-------4-----------|

G ---------------------------|
D ---------------4-4---------|
A --3-3-3------------4-------|
E ---------------------2-----|

G ---------------------------|
D -4-4-----------------------|
A -----4-----------1-1-------|
E -------2-------4-----------|

G ---------------------------|
D ---------------4-4---------|
A --3-3-3------------4-------|
E ---------------------2-----|

Verse 1:

G --3-3----------------------|
D ------3--------------------|
A --------1------------------|
E ----------------4-4-2-4----|

G ----------------------------|
D --4-4-----------4-4-------4-|
A ------4-------------4---4---|
E --------2-------------2-----|

G --3-3----------------------|
D ------3--------------------|
A --------1------------------|
E ----------------4-4-2-4----|

G ---------------------------|
D --4-4----------------------|
A ------4--------------------|
E --------2---------2-2-2-2--|

Pre-Chorus:

G ---------------------------|
D -----3--------3------------|
A -1-1---1-------------------|
E ----------------4-4-1------|

G ---------------------------|
D ---------------1-1---1-----|
A -------------------1-------|
E --4-4-2-4------------------|

G ---------------------------|
D -----3--------3------------|
A -1-1---1-------------------|
E ----------------4-4-1------|

G ---------------------------|
D ---------------1-1---1-----|
A -------------------1-------|
E --4-4-2-4------------------|

Chorus:

G ---------------------------|
D -4-4-----------------------|
A -----4-----------1-1-------|
E -------2-------4-----------|

G ---------------------------|
D ---------------4-4---------|
A --3-3-3------------4-------|
E ---------------------2-----|

G ---------------------------|
D -4-4-----------------------|
A -----4-----------1-1-------|
E -------2-------4-----------|

G ---------------------------|
D ---------------4-4---------|
A --3-3-3------------4-------|
E ---------------------2-----|

Verse 2:

G --3-3----------------------|
D ------3--------------------|
A --------1------------------|
E ----------------4-4-2-4----|

G ----------------------------|
D --4-4-----------4-4-------4-|
A ------4-------------4---4---|
E --------2-------------2-----|

G --3-3----------------------|
D ------3--------------------|
A --------1------------------|
E ----------------4-4-2-4----|

G ---------------------------|
D --4-4----------------------|
A ------4--------------------|
E --------2---------2-2-2-2--|

Pre-Chorus:

G ---------------------------|
D -----3--------3------------|
A -1-1---1-------------------|
E ----------------4-4-1------|

G ---------------------------|
D ---------------1-1---1-----|
A -------------------1-------|
E --4-4-2-4------------------|

G ---------------------------|
D -----3--------3------------|
A -1-1---1-------------------|
E ----------------4-4-1------|

G ---------------------------|
D ---------------1-1---1-----|
A -------------------1-------|
E --4-4-2-4------------------|

Chorus:

G ---------------------------|
D -4-4-----------------------|
A -----4-----------1-1-------|
E -------2-------4-----------|

G ---------------------------|
D ---------------4-4---------|
A --3-3-3------------4-------|
E ---------------------2-----|

G ---------------------------|
D -4-4-----------------------|
A -----4-----------1-1-------|
E -------2-------4-----------|

G ---------------------------|
D ---------------4-4---------|
A --3-3-3------------4-------|
E ---------------------2-----|

Then There's A Small Break

Chorus:

G ---------------------------|
D -4-4-----------------------|
A -----4-----------1-1-------|
E -------2-------4-----------|

G ---------------------------|
D ---------------4-4---------|
A --3-3-3------------4-------|
E ---------------------2-----|

G ---------------------------|
D -4-4-----------------------|
A -----4-----------1-1-------|
E -------2-------4-----------|

G ---------------------------|
D ---------------4-4---------|
A --3-3-3------------4-------|
E ---------------------2-----|

G ---------------------------|
D -4-4-----------------------|
A -----4-----------1-1-------|
E -------2-------4-----------|

G ---------------------------|
D ---------------4-4---------|
A --3-3-3------------4-------|
E ---------------------2-----|

G ---------------------------|
D -4-4-----------------------|
A -----4-----------1-1-------|
E -------2-------4-----------|

G ---------------------------|
D ---------------4-4---------|
A --3-3-3------------4-------|
E ---------------------2-----|

G ---------------------------|
D -4-4-----------------------|
A -----4-----------1-1-------|
E -------2-------4-----------|

G ---------------------------|
D ---------------4-4---------|
A --3-3-3------------4-------|
E ---------------------2-----|

G ---------------------------|
D -4-4-----------------------|
A -----4-----------1-1-------|
E -------2-------4-----------|

G ---------------------------|
D ---------------4-4---------|
A --3-3-3------------4-------|
E ---------------------2-----|

Enjoy.
            
Submit corrections



        Spiralling lessons Hard to play? Try these video lessons and learn fast Spiralling lessons
        
↑ Back to top | Tablatures and chords for acoustic guitar and electric guitar, ukulele, drums are parodies/interpretations of the original songs. You may use it for private study, scholarship, research or language learning purposes only