» » »

Katatonia - Teargas Tabs

Artists:  A B C D E F G H I J K L M N O P Q R S T U V W X Y Z # 

Teargas Tabs

(ver. 2) Click to play this song!
Katatonia
 Rating:
4/5 (4 votes)

 Teargas lessons Tabs too difficult? Try these video lessons and learn fast
 
                Intro:
    Abm    Gb6  Dbm    Abm  x2
    
    Emaj7  Abm  Badd9  Emaj7
    
    Emaj7  Abm  Gb6    Dbm


Verse:
    Abm                 Gb6         Dbm           Abm
    Why have you put so many things into my eyes (that I can't see clear)

    Abm                 Gb6            Dbm        Abm
    Who's paid you for telling me what I'm worth (and run in fear)

    Abm                  Gb6           Dbm      Abm
    It has been for me a strain to see already (what have you done)

    Abm                   Gb6                   Dbm            Abm
    The rising noise, the sharpened smells, the deadened sight

    
Chorus (1, 2 and 3):
    Emaj7                    Abm 
    What is it in my eyes, a piece of broken glass?
    
    Badd9                              Emaj7
    Is this the time I should be on my knees for you?
    
    Emaj7                           Abm 
    Is this your way of telling me, another has been found?
    
    Dbm                           Abm
    Now I know it's teargas in my eyes


Interlude:
    Acoustic Guitar:
    Emaj7  Abm  Badd9  Emaj7
    
    Emaj7  Abm  Gb6    Emaj7  Em
    
    Abm  Gb6  Dbm  Abm x2
    

    Electric guitar:
    Eb|---------------------------|---------------------------|
    Bb|-12--10---12-13---12--10~--|-12--10--------------------|
    Gb|---------------------------|---------12-9--9h10p9------|
    Db|---------------------------|-----------------------12~-|
    Ab|---------------------------|---------------------------|
    Eb|---------------------------|---------------------------|
    
    Eb|---------------------------|----------------------------|
    Bb|-10h12--10--12-13--12--10~-|-12--10---------------------|
    Gb|---------------------------|---------12-9--9h10p9-------|
    Db|---------------------------|-----------------------12~\-|
    Ab|---------------------------|----------------------------|
    Eb|---------------------------|----------------------------|

    Eb|----------------------|----------------------|-10h12-12-12-12--10h12p10-----------------------------|
    Bb|-8h10-10-10--10-10-10-|-10-10h12-12-12-12-12-|--------------------------12--12/13-13--13\10-10--10~-|
    Gb|----------------------|----------------------|------------------------------------------------------|
    Db|----------------------|----------------------|------------------------------------------------------|
    Ab|----------------------|----------------------|------------------------------------------------------|
    Eb|----------------------|----------------------|------------------------------------------------------|
    
    Eb|----------------------|----------------------|-10h12-12-12-12--12-10-10h12p10---------------|
    Bb|-8-8h10-10-10~-----10-|-10-10/12-12-12-12-12-|--------------------------------12--12/13-10~-|
    Gb|----------------------|----------------------|----------------------------------------------|
    Db|----------------------|----------------------|----------------------------------------------|
    Ab|----------------------|----------------------|----------------------------------------------|
    Eb|----------------------|----------------------|----------------------------------------------|
    
    
CHORDS:
         Abm     Gb6     Dbm    Emaj7   Badd9    Em   
    Eb|---0---|---0---|---1---|---0---|---0---|---1---|
    Bb|---1---|---3---|---3---|---1---|---3---|---1---|
    Gb|---2---|---0---|---2---|---2---|---0---|---1---|
    Db|---2---|---0---|---0---|---3---|---2---|---3---|
    Ab|---0---|---2---|---x---|---3---|---3---|---3---|
    Eb|---x---|---3---|---x---|---1---|---x---|---1---|
            
Submit corrections


        Teargas lessons Hard to play? Try these video lessons and learn fast Teargas lessons
        
↑ Back to top | Tablatures and chords for acoustic guitar and electric guitar, ukulele, drums are parodies/interpretations of the original songs. You may use it for private study, scholarship, research or language learning purposes only