» » »

Kashmir - The Story Of Jamie Fame Flame Tabs

Artists:  A B C D E F G H I J K L M N O P Q R S T U V W X Y Z # 

The Story Of Jamie Fame Flame Tabs

(ver. 3) Click to play this song!
Kashmir
 Rating:
4/5 (4 votes)


 The Story Of Jamie Fame Flame lessons Tabs too difficult? Try these video lessons and learn fast
 
                    ______________________________________
   / Kashmir                             /  Denne solo bliver simpelthen aldrig
  / The Story of Jamie Fame Flame Solo  /  kedelig! Det er en absolut dansk
 / Travelogue                          /  guitar-klassisker. Jeg glemmer i hvert
/_____________________________________/  fald aldrig hvordan man spiller den! ;)

           
 Jazz-delen:
************
Switch over på forreste pickup.

|----------------------------------------------|-------------------------------|
|-------------------12-------------------------|-------------------------------|
|-------------12-15----12----------------------|-------------------------------|
|-------12-14----------------14-13-12-11~------|----------------14~------------|
|-12s14-------------------14-------------------|---14-13-12p11-----------------|
|----------------------------------------------|-------------------------------|

Det passer mig bedste at tage disse akkorder ved at lægge ringefingeren
barré til de øverste toner og tage den nederste tone med pegefingeren.
|---x-16-15--x------x-x-|--x-13-12-----x-12---12---|
|---x-16-15-14------x-x-|-14-13-12-----x-12---12---|
|---x--x-14-13------x-x-|-14-13-12-----x-11---11---|
|---x---------------x-x-|-13-12-11-----x-----------|
|-----------------------|--------------------------|
|-----------------------|--------------------------|


|------------------------------|-----------------------------------|
|------------------------------|-----------------------------------|
|-------------------------9-11-|--11--9-----9~-----11--11b12--11-9-|
|------------------9--11-------|---------11*-----------------------|
|-------7--9--9s11-------------|-----------------------------------|
|--7h9-------------------------|-----------------------------------|
                                           *Palm Mute denne ene tone her.

|------------------------|-----------------------------------------------------|
|------------------------|-------15--------------------------------------------|
|-h11b12~----------12-14-|-14b16----14b16--14b16r14p12----14----12h13----------|
|--------------/14-------|-----------------------------14----14-------14---12--|
|------------------------|-----------------------------------------------------|
|------------------------|-----------------------------------------------------|



 Tonzer-delen:
**************
Switch tilbage på bagerste pickup.

|-------------------------|-------------------------|
|-------------------------|-------------------------|
|-------------------------|-------------------------|
|-------------------------|-------------------------|
|-5--5--5--5--5--5--5--5--|-5--5--5--5--5--x/-x\-x\-|
|-3--3--3--3--3--3--3--3--|-3--3--3--3--3--x/-x\-x\-|

                    Denne her del går sindssygt stærkt og er bare improvisation.
|-----------------------------------------------|------------------------------|
|-----------------------------------------------|------------------------------|
|-16b18-16b18-16-15-14~--p0h14p12p11------------|------------------------------|
|-----------------------------------h14p12b14-p0|-9t11-9-11-9------------------|
|-----------------------------------------------|-----------------12-/12-12-12-|
|-----------------------------------------------|-------------12---------------|



 Main-Riff variation:
*********************

|-----------------------|-----------------------|
|-----------------------|-----------------------|
|-----------------------|-----------------------|
|-----------------------|-----------------------|
|-x\-----------------2--|--3----x-x-x-0---2~~---|
|-x\-0---2---3---5------|-------x-x-x-----------|

|-----------------------|-----------------------|
|-----------------------|-----------------------|
|-----------------------|-----------------------|
|-----------------------|-----------------------|
|--------------------2--|--3----x-x-x-0---2~~~/-|
|-x/-0---2---3---5------|-------x-x-x-----------|

|-----------------------|-----------------------|
|-----------------------|-----------------------|
|-----------------------|-----------------------|
|----2---0---0----------|--2----5p2p0-----------|
|----------------2~~-0--|-------------0---2/----|
|-x\--------------------|-----------------------|

|-----------------------|-----------------------|
|-----------------------|-----------------------|
|-----------------------|-----------------------|
|----2---0---0----------|--2----5-2-0-----------|
|----------------2~~-0--|-------------0---2/----|
|-----------------------|-----------------------|


|-------------------------------------|---------------------------------------|
|-------------------------------------|---------------------------------------|
|---14b16-12h14~-12h14~~-12h14p12s11~-|---12--14pb16r14p12-14---14b16----/9---|
|-------------------------------------|---------------------------------------|
|-------------------------------------|---------------------------------------|
|-------------------------------------|---------------------------------------|

|-------------------------|-----------------------|
|-------------------------|-----------------------|
|-------------------------|-----------------------|
|---/9---7---7---5h7p5p4--|---5--9p7p5-7---7h9~---|
|-------------------------|-----------------------|
|-------------------------|-----------------------|



 Re-Intro:
**********

|----------------------|----------------------|
|----------------------|----------------------|
|----------------------|----------------------|
|----------------------|--------7---9---------|
|---2---5---5----------|--x-9---5---7---------|
|---0---2---3----------|--x-7-------0---------|

|----------------------|----------------------|
|----------------------|----------------------|
|----------------------|----------------------|
|-x\-------------------|--------7---9---------|
|-x\-2---5---5---------|-x--9---5---7---------|
|-x\-0---2---3---------|-x--7-----------------|



Jon Sebastian Frederiksen - 15th /October /09
            
Submit corrections



        The Story Of Jamie Fame Flame lessons Hard to play? Try these video lessons and learn fast The Story Of Jamie Fame Flame lessons
        
↑ Back to top | Tablatures and chords for acoustic guitar and electric guitar, ukulele, drums are parodies/interpretations of the original songs. You may use it for private study, scholarship, research or language learning purposes only