» » »

Kasabian - Reason Is Treason Bass

Artists:  A B C D E F G H I J K L M N O P Q R S T U V W X Y Z # 

Reason Is Treason Bass

(ver. 3) Click to play this song!
Kasabian
 Rating:
4/5 (4 votes)


 Reason Is Treason lessons Tabs too difficult? Try these video lessons and learn fast
 
                00:14-00:36, 00:38-00:48
G|-----------------|
D|4-2-2-2-2-2-2-2--|
A|-----------------|
E|-----------------|

00:36-00:38
G|-------------------|
D|4-2-2-2-4-2-2-4-2--|
A|-------------------|
E|-------------------|

00:49-00:51
G|---------------------------------|
D|---------------------------------|
A|3-3-3-3-3-3-3-3-4-4-4-4-5-5-5-5--|
E|---------------------------------|


G|-----------------   ---------------------------------|
D|4-2-2-2-2-2-2-2--   ---------------------------------|
A|-----------------x3 3-3-3-3-3-3-3-3-4-4-4-4-5-5-5-5--|
E|-----------------   ---------------------------------|

G|-----------------   -------------------------------------------------|
D|4-2-2-2-2-2-2-2--   4-2-2-2-4-2-2-2-4--------------------------------|
A|-----------------x2 ------------------3-3-3-3-3-3-3-4-4-4-4-5-5-5-5--|
E|-----------------   -------------------------------------------------|

G|--------------------------5-3-2--|
D|2-2-2-2-2-2-2-2-2-2-2-2-2--------|
A|---------------------------------|
E|---------------------------------|

G|-----------------   -------------------------------------------------|
D|4-2-2-2-2-2-2-2--   4-2-2-2-4-2-2-2-4--------------------------------|
A|-----------------x2 ------------------3-3-3-3-3-3-3-4-4-4-4-5-5-5-5--|
E|-----------------   -------------------------------------------------|

G|------------------------6--------|
D|2-2-2-2-2-2-2-5-4-5/8-9---9\7\5--|
A|---------------------------------|
E|---------------------------------|

G|---------------------------------|
D|4-2-2-2-2-2-2-2-4-2-2-2-4-2-2-2--|
A|---------------------------------|x2
E|---------------------------------|

G|---------------------------------|
D|---------------------------------|
A|3-3-3-3-3-3-3-3-4-4-4-4-5-5-5-5--|
E|---------------------------------|

G|------------|
D|--2---------|
A|5---3-4-2~--|x4
E|------------|

G|-----------------|
D|4-2-2-2-2-2-2-2--|
A|-----------------|x3
E|-----------------|

G|---------------------|
D|4-2~-/5~-/7~-/9-9-9--|
A|---------------------|
E|---------------------|

G|---------------------------------|
D|---------------------------------|
A|3-3-3-3-3-3-3-3-4-4-4-4-5-5-5-5--|
E|---------------------------------|

G|-----------------   -------------------------------------------------|
D|4-2-2-2-2-2-2-2--   4-2-2-2-4-2-2-2-4--------------------------------|
A|-----------------x3 ------------------3-3-3-3-3-3-3-4-4-4-4-5-5-5-5--|
E|-----------------   -------------------------------------------------|

G|-----------------|
D|4-2-2-2-2-2-2-2--|
A|-----------------|x4
E|-----------------|

G|----------|
D|2---------|
A|--3~~~~~--
E|----------

Pause/rest for bridge

02:53
G|------------------|
D|9-9-9-\7~-\5~-\2--|
A|------------------|
E|------------------|

G|-------------------------------------------------------------------|
D|2-2-2-2-2-2-2-2-2-2-2-2-2-2-2-2-2-2-2-2-2-2-2-2-2-2-2-2-2-2-2-2-4--|
A|-------------------------------------------------------------------|x3
E|-------------------------------------------------------------------|

G|-------------------------------------------------------------------|
D|2-2-2-2-2-2-2-2-2-2-2-2-2-2-2-2------------------------------------|
A|--------------------------------3-3-3-3-3-3-3-3-3-4-4-4-4-5-5-5-5--|
E|-------------------------------------------------------------------|

G|-----------------   -------------------------------------------------|
D|4-2-2-2-2-2-2-2--   4-2-2-2-4-2-2-2-4--------------------------------|
A|-----------------x3 ------------------3-3-3-3-3-3-3-4-4-4-4-5-5-5-5--|
E|-----------------   -------------------------------------------------|

G|-----------------   ---------------------------------------------------|
D|4-2-2-2-2-2-2-2--   4-2-2-2-4-2-2-2-4----------------------------------|
A|-----------------x3 ------------------5-5-5-5-5-5-5-5-7-7-7-/9~-7-5/\--|
E|-----------------   ---------------------------------------------------|

G|----------------------------------------------|
D|4-2-2-2-2-2-2-2--/\2-2-2-2-2~-/5~-/7~-/9-9-9--|
A|----------------------------------------------|
E|----------------------------------------------|

G|-------------------------------|
D|------------------------7------|
A|3-3-3-3-3-3-3-3-/9~-7-5---5/\--|
E|-------------------------------|

G|-------------------|
D|/\2-2-2-2-2-2-2-2--|
A|-------------------|x3
E|-------------------|

G|----------------|
D|/9-4~-5~-7~-8~--|
A|----------------|
E|----------------|

G|-----------|
D|/\2-2-2-2--|
A|-----------|x6
E|-----------|

G|---------------------------------|
D|4--------------------------------|
A|--3-3-3-3-3-3-3-4-4-4-4-5-5-7-7--|
E|---------------------------------|

G|-----------|
D|/\2-2-2-2--|
A|-----------|x6
E|-----------|

G|---------------------------------|
D|4--------------------------------|
A|--3-3-3-3-3-3-3-4-4-4-4-5-5-7-7--|
E|---------------------------------|

G|-----------------   -------------------------------------------------|
D|4-2-2-2-2-2-2-2--   4-2-2-2-4-2-2-2-4--------------------------------|
A|-----------------x3 ------------------3-3-3-3-3-3-3-4-4-4-4-5-5-5-5--|
E|-----------------   -------------------------------------------------|

G|-------
D|2~~~---
A|-------|
E|-------|

This may seem like alot, but it's mostly because of the countless filler's he does...
so listen carefully before rating
            
Submit corrections



        Reason Is Treason lessons Hard to play? Try these video lessons and learn fast Reason Is Treason lessons
        
↑ Back to top | Tablatures and chords for acoustic guitar and electric guitar, ukulele, drums are parodies/interpretations of the original songs. You may use it for private study, scholarship, research or language learning purposes only