» » »

Kasabian - Lsf Bass

Artists:  A B C D E F G H I J K L M N O P Q R S T U V W X Y Z # 

Lsf Bass

(ver. 3) Click to play this song!
Kasabian
 Rating:
4/5 (4 votes)


 Lsf lessons Tabs too difficult? Try these video lessons and learn fast
 
                LSF from the album Kasabian.

Verse1(I'm on it...)
|----------------------------------------|
|----------------------------------------|
|-----------------5-5--------------------|x2
|-00-0-00-0-00-0-0---55-5-55-5-55-5-3333-|

Pre Verse
|-------------|
|-------------|
|----77----77-|x1
|-------------|

Verse2
|----------------------------------------|
|----------------------------------------|
|-----------------5-5--------------------|x2
|-00-0-00-0-00-0-0---55-5-55-5-55-5-3333-|

Pre Chorus1
|-------------------|
|-------------------|
|-------------------|x1
|-555555555555-3333-|

Chorus
|-----------------------------|
|-----------------------------|
|-----------------------------|x2
|-00-000-33-333-55-555-00-000-|

Verse3
|----------------------------------------|
|----------------------------------------|
|-----------------5-5--------------------|x2
|-00-0-00-0-00-0-0---55-5-55-5-55-5-3333-|

Pre Chorus2
|-------------|
|-------------|
|----77----77-|x2
|-------------|

Chorus
|-----------------------------|
|-----------------------------|
|-----------------------------|x6
|-00-000-33-333-55-555-00-000-|
            
Submit corrections



        Lsf lessons Hard to play? Try these video lessons and learn fast Lsf lessons
        
↑ Back to top | Tablatures and chords for acoustic guitar and electric guitar, ukulele, drums are parodies/interpretations of the original songs. You may use it for private study, scholarship, research or language learning purposes only