» » »

Kasabian - Lets Roll Just Like We Used To Bass

Artists:  A B C D E F G H I J K L M N O P Q R S T U V W X Y Z # 

Lets Roll Just Like We Used To Bass

(ver. 1) Click to play this song!
Kasabian
 Rating:
4/5 (4 votes)


 Lets Roll Just Like We Used To lessons Tabs too difficult? Try these video lessons and learn fast
 
                -------------------------------------------------------------------------------
			     SONG NAME - Band Name
-------------------------------------------------------------------------------


Tuning:Standard

G|-------------------------------------------------------|
D|-------------------------------------------------------| play twice
A|-------2---------------------2-------------------------|
E|-2-4-5---5-4-5-2-4-2-0-2-4-5---5-4-2-2-0-2-2-0-2-2-0---|

Out of my garden, passed the battle cruiser
We jumped over cemetery gates
There on the wasteland, we saw the horizon
I noticed your pupils dilate

G|------------------|
D|------------------| play x4
A|-2----------------}
E|---5-2-3-2-0------|

G|-------------------------------------|
D|-------------------------------------| Play this twice
A|-------------2-2-2-2-2-2-------------| & double hit each note
E|-3-3-3-3-3-3-------------2-2-2-2-2-2-|

They're at it again, let's roll just like we used to
In fields when we were young our hearts got lost in the circles

G|--------------------------------------|
D|--------------------------------------|
A|--------------------------------------|
E|-5-5-5-5-5-5-7-7-7-7-7-7-5-5-5-5-5-5--|

We had it all, a rise and fall

G|-------------------------------------------------------|
D|-------------------------------------------------------| play 3 times
A|-------2---------------------2-------------------------|
E|-2-4-5---5-4-5-2-4-2-0-2-4-5---5-4-2-2-0-2-2-0-2-2-0---|

Came from the booze and the fags generation
And prayed for the mayhem to start
You said you were foolish but I saw the genius
In pulling the stitches apart

G|------------------|
D|------------------| play x4
A|-2----------------}
E|---5-2-3-2-0------|


G|-------------------------------------|
D|-------------------------------------| Play this twice
A|-------------2-2-2-2-2-2-------------| & double hit each note
E|-3-3-3-3-3-3-------------2-2-2-2-2-2-|

They're at it again, let's roll just like we used to
In fields when we were young our hearts got lost in the circles

D|--------------------------------------|
A|--------------------------------------|
E|-5-5-5-5-5-5-7-7-7-7-7-7-5-5-5-5-5-5--|

We had it all, a rise and fall

G|---------------------------------------------------------|
D|---------------------------------------------------------|
A|-------5-5-5--------7-7-7--------------------------------|
E|-7-7-7-------5-5-5--------3-3-3-3-3-3-2-2-2-2-2-2-2-2-2--|

So raise your glass to the ones who have passed
And the ones that got away, ohh

G|-------------------------------------|
D|-------------------------------------| Play this twice
A|-------------2-2-2-2-2-2-------------| & double hit each note
E|-3-3-3-3-3-3-------------2-2-2-2-2-2-|

They're at it again, let's roll just like we used to
In fields when we were young our hearts got lost in the circles

G|--------------------------------------|
D|--------------------------------------|
A|--------------------------------------|
E|-5-5-5-5-5-5-7-7-7-7-7-7-5-5-5-5-5-5--|

We had it all, a rise and fall
I saw her face, way out in space

G|-------------------------------------------------------|
D|-------------------------------------------------------| play 3 times
A|-------2---------------------2-------------------------|
E|-2-4-5---5-4-5-2-4-2-0-2-4-5---5-4-2-2-0-2-2-0-2-2-0---|



| /  slide up
| \  slide down
| h  hammer-on
| p  pull-off
| ~  vibrato
| +  harmonic
| x  Mute note
===========================
            
Submit corrections



        Lets Roll Just Like We Used To lessons Hard to play? Try these video lessons and learn fast Lets Roll Just Like We Used To lessons
        
↑ Back to top | Tablatures and chords for acoustic guitar and electric guitar, ukulele, drums are parodies/interpretations of the original songs. You may use it for private study, scholarship, research or language learning purposes only