» » »

Karen O And The Kids - Worried Shoes Tabs

Artists:  A B C D E F G H I J K L M N O P Q R S T U V W X Y Z # 

Worried Shoes Tabs

(ver. 1) Click to play this song!
Karen O And The Kids
 Rating:
4.2/5 (5 votes)
                The strumming's easy to figure out.
Standard tuning: E, A, D, G, B, e

------------------------------------|
------------------------------------|
--10------9-------7-------7---------|
--10------10------7-------7--7------|
--8-------8-------5-------5----8-5--|
------------------------------------|


-------------------------------|
-------------------------------|
--3-------5-------10-------10--|
--3-------5-------10-------10--|
--1-------3-------8--------8---|
------------------8--------8---|

Last two chords might be:
------
------
--10--
--10--
--8---
--6---
(base note changes)
PLay whatever you think sounds better...
            
Submit corrections

↑ Back to top | Tablatures and chords for acoustic guitar and electric guitar, ukulele, drums are parodies/interpretations of the original songs. You may use it for private study, scholarship, research or language learning purposes only