» » »

Justin Timberlake - True Colors Tabs

Artists:  A B C D E F G H I J K L M N O P Q R S T U V W X Y Z # 

True Colors Tabs

(ver. 1) Click to play this song!
Justin Timberlake
 Rating:
4.3/5 (10 votes)
    True Colors  lessons Tabs too difficult? Try these video lessons and learn fast
                [Intro]
e|-3-----3-3-----3-3--------------3-----3-3-----3-3--------------|
B|---0-1-----0-1-----0-1---0-1------0-1-----0-1-----0-1----------|
G|-----------------------2-----2------------------------2--------|
D|-----------------------3------------------------------3--------|
A|-0-------2-------3--------------0-------2-------3--------------|
E|---------------------------------------------------------------|
   Am      G/B     C     F        Am      G/B    C     F
   
[Verse]
"You with the sad eyes don't be discouraged"
e|-----------------------------1---------------------------------|
B|-----1-------0-------1-------1---------------------------------|
G|-----2-------0-------0-----2---2-------------------------------|
D|---2---2---0---0---2---2-3-------------------------------------|
A|-0-------2-------3---------------------------------------------|
E|---------------------------------------------------------------|
   Am      G       C       F
   
"oh I realize, it's hard to take courage"
e|-----------------------------1---------------------------------|
B|-----1-------0-------1-------1---------------------------------|
G|-----2-------0-------0-----2---2-------------------------------|
D|---2---2---0---0---2---2-3-------------------------------------|
A|-0-------2-------3---------------------------------------------|
E|---------------------------------------------------------------|
   Am      G       C       F

"In a world full of people, You can lose sight of it all"
e|-----------------------------1---------------------------------|
B|-----1-------0-------1-------1---------------------------------|
G|-----2-------0-------0-----2---2-------------------------------|
D|---2---2---0---0---2---2-3-------------------------------------|
A|-0-------2-------3---------------------------------------------|
E|---------------------------------------------------------------|
   Am      G       C       F
   
"And the darkness inside you, can make you feel so small"
e|---------------------------------------------------------------|
B|-----1-------0-----1-1-----1-----------------------------------|
G|-----2-------0-----2-2-----0-----------------------------------|
D|---2---2---0---0---3-3-----2-----------------------------------|
A|-0-------2---------3-3-----3-----------------------------------|
E|---------------------------------------------------------------|
   Am      G         F       C
   

[Bridge]
e|-3-----3-3-----3-3---------------------------------------------|
B|---0-1-----0-1-----0-1---0-1-----------------------------------|
G|-----------------------2-----2---------------------------------|
D|-----------------------3---------------------------------------|
A|-0-------2-------3---------------------------------------------|
E|---------------------------------------------------------------|
   Am      G/B     C     F        


[Chorus]
"And I see your true colors shining through"
e|-----1---------------------------------------------------------|
B|-----1-------1-------0-------0---------------------------------|
G|---2---2-----0-------0-------0---------------------------------|
D|-3---------2---2---0---0---0---0-------------------------------|
A|---------3-----------------------------------------------------|
E|-----------------3-------3-------------------------------------|
   F       C       G       G

"I see your true colors, and that's why I love you"
e|-----1---------------1-----------------------------------------|
B|-----1-------1-------1-------0---------------------------------|
G|---2---2-----0-----2---2-----0---------------------------------|
D|-3---------2---2-3---------0---0-------------------------------|
A|---------3-----------------------------------------------------|
E|-------------------------3-------------------------------------|
   F       C       F       G

"So don't be afraid to let them show"
e|-----1---------------------------------------------------------|
B|-----1-------1-------0-------1---------------------------------|
G|---2---2-----0-------1-------2---------------------------------|
D|-3---------2---2---2---2---2---2-------------------------------|
A|---------3-------2-------0-------------------------------------|
E|---------------------------------------------------------------|
   F       C       E       Am
   
"Your true colors, true colors"
e|-----1---------------1-----------------------------------------|
B|-----1-------1-------1-------1---------------------------------|
G|---2---2-----0-----2---2-----0---------------------------------|
D|-3---------2---2-3---------2---2-------------------------------|
A|---------3---------------3-------------------------------------|
E|---------------------------------------------------------------|
   F       C       F       C

"are beautiful"
e|---------------------------------------------------------------|
B|-----0-------0-------0-------0---------------------------------|
G|-----0-------0-------0-------0---------------------------------|
D|---0---0---0---0---0---0---0---0-------------------------------|
A|---------------------------------------------------------------|
E|-3-------3-------3-------3-------------------------------------|
   G       G       G       G            
Submit corrections

↑ Back to top | Tablatures and chords for acoustic guitar and electric guitar, ukulele, drums are parodies/interpretations of the original songs. You may use it for private study, scholarship, research or language learning purposes only