» » »

Justin Moore - Small Town Usa Tabs

Artists:  A B C D E F G H I J K L M N O P Q R S T U V W X Y Z # 

Small Town Usa Tabs

(ver. 2) Click to play this song!
Justin Moore
 Rating:
4/5 (4 votes)


 Small Town Usa lessons Tabs too difficult? Try these video lessons and learn fast
 
                (Solo)
Tuning is down one half-step (Eb-Ab-Db-Gb-Bb-Eb).
Song is played in the key of Gb maj but the solo here is done with an E min
pentatonic (which is really an Eb min because of the tuning.)  The chord
progression is basically 1-5-4 (G-D-C), 1-5-4-5 (G-D-C-D) with some
changes thrown in here and there.

E----------------------------------------------------------------------------------------------
A---5---7------------7-------------------------------------------------------------------------
D-----------5---5-------5---7 s 9-----9-----9---------------------------9---7---7---7---7------
G----------------------------------7-----7-------7---9---7---7---9---7----------7--------------
D--------------------------------------------------------8---8---------------------------------
e----------------------------------------------------------------------------------------------

E--------------------------------------------------------------------------------------------------
A--------------------------------------------------------------------------------------------------
D--s>9---------------------------------------------------------------------------------------------
G-----7----s>9-------------------------------------------------------------16----------16—14s12--
D-------------8---s>12------s>17-----------------------------17-----17—15-----17---15--------------
e---------------------10--------15-------17—--b17^(19)---15------15--------------------------------
 
            
Submit corrections



        Small Town Usa lessons Hard to play? Try these video lessons and learn fast Small Town Usa lessons
        
↑ Back to top | Tablatures and chords for acoustic guitar and electric guitar, ukulele, drums are parodies/interpretations of the original songs. You may use it for private study, scholarship, research or language learning purposes only