» » »

Judas Priest - Pain Killer Bass

Artists:  A B C D E F G H I J K L M N O P Q R S T U V W X Y Z # 

Pain Killer Bass

(ver. 1) Click to play this song!
Judas Priest
 Rating:
4/5 (4 votes)


 Pain Killer lessons Tabs too difficult? Try these video lessons and learn fast
 
                This is the very first tab I've ever done so go easy on me. :)

All verses

G---------------------------------|--------------------------------|   X7
D---------------------------------|--------------------------------|
A---------------------------------|--------------------------------|
E-0-0-0-0-0-0-0-0-0-0-0-0-0-0-7-7-0-0-0-0-0-0-0-0-0-0-0-0-0-0-7-7--|

Chorus
G---------------------------------|---------------------------|
D---------------------------------|---------------------------|
A-000000000000000-5-3-2-000000000000000-2-3-5-----------------|
E---------------------------------|---------------------------|

Verse again
Then Chorus

Interlude
G---------------------------------|---------------------------|
D---------------------------------|---------------------------|
A-2-2-2-2-2-2-2-2-2-2-3-3-3-3-3-3-3-3-3-3-2-2-2-2-2-2-2-2-2-2-|
E---------------------------------|---------------------------|

Interlude cont.
G---------------------------------|---------------------------|  X4
D---------------------------------|---------------------------|
A---------------------------------|---------------------------|
E-2222222222222-3-3-2222222222222-5-5-------------------------|

G---------------------------------|---------------------------| X4
D---------------------------------|---------------------------|
A---------------------------------|---------------------------|
E-5555555555555-6-6-5555555555555-7-7-------------------------|

Awesome fast part
G---------------------------------|------------------------------|
D---------------------------------|------------------------------|
A-00000111333333-00013-000001113333333-00013-0-1-3-0-1-3-0-1-3---|
E---------------------------------|------------------------------|

G---------------------------------|---------------------------|
D---------------------------------|---------------------------|
A-013013013013013-----------------|---------------------------|
E---------------------------------|---------------------------|

Solo

G---------------------------------|---------------------------|
D---------------------------------|---------------------------|
A-4-4-4-4-4-4-4-4-4-4-4-4-4-4-4-4-|-4-4-4-4-4-4-4-4-4-4-4-4-2-|
E---------------------------------|---------------------------| X2

G---------------------------------|---------------------------|
D---------------------------------|---------------------------|
A---------------------------------|---------------------------|
E-2-2-2-2-2-2-2-2-2-2-2-2-2-2-2-2-|-2-2-2-2-2-2-2-2-2-2-2-2-0-| X2

G---------------------------------|---------------------------------|
D---------------------------------|---------------------------------|
A-4-4-4-4-4-4-4-4-4-4-4-4-4-4-4-4-|-2-2-2-2-2-2-2-2-2-2-2-2-2-2-2-2-|
E---------------------------------|---------------------------------|
								        X3
G---------------------------------|---------------------------------|
D---------------------------------|---------------------------------|
A-0-0-0-0-0-0-0-0-0-0-0-0-0-0-0-0-|-2-2-2-2-2-2-2-2-2-2-2-2-2-2-2-2-|
E---------------------------------|---------------------------------|

G---------------------------------|---------------------------------|
D---------------------------------|---------------------------------|
A-4-4-4-4-4-4-4-4-4-4-4-4-4-4-4-4-|-2-2-2-2-2-2-2-2-2-2-2-2-2-2-2-2-|
E---------------------------------|---------------------------------|

G---------------------------------|-------------|
D---------------------------------|-------------|
A-0-0-0-0-0-0-0-0-0-0-0-0-0-0-0-0-|-----------2-|
E---------------------------------|-4-0-2-3-4---|

G-------------------------------------|---------------------------------|
D-------------------------------------|---------------------------------|
A-----------------------------------0-|---------------------------------|
E-4-4-4-4-4-4-4-4-4-4-4-4-4-4-4-4-2---|-4-4-4-4-4-4-4-4-4-4-4-4-4-4-4-4-| X2

G-----------------------------|---|-----------------|
D-----------------------------|---|---------------2-|
A---------------------------0-|-4-|-5-0-0-------2---|
E-4-4-4-4-4-4-4-4-4-4-4-4-2---|---|-------4-2-4-----|

Verse

Chorus

"Wings of Steel" chorus
G-------------------------------------------------|---------|
D-------------------------------------------------|---2-0---|
A-2-2-2-2-2-2-2-2-2-2-2-2-2-2-2-2-2-2-2-2-2-2-2-2-|-2-----4-|
E-------------------------------------------------|---------|


G-------------------------------------------------|-----------|
D-------------------------------------------------|-----1-2---|
A-2-2-2-2-2-2-2-2-2-2-2-2-2-2-2-2-2-2-2-2-2-2-2-2-|-2-4-------|
E-------------------------------------------------|-----------|

Repeat interlude and "Awesome fast part"

Outro
G---------------------------------|---------------------------|
D---------------------------------|---------------------------|
A---------------2~-------------2~-|---------------------------|
E-0-0-----0-0--------0-0----------|---------------------------|

G---------------------------------|--------------------------------|   X7
D---------------------------------|--------------------------------|
A---------------------------------|--------------------------------|
E-0-0-0-0-0-0-0-0-0-0-0-0-0-0-7-7-0-0-0-0-0-0-0-0-0-0-0-0-0-0-7-7--|

Final Solo
G---------------------------------|-----------------------------|
D---------------------------------|-----------------------------|
A---------------------------------|-----------------------------|
E-2-2-2-2-2-2-2-2-2-2-2-2-2-2-2-2-|-2-2-2-2-2-2-2-2-2-2-2-2-0-3-| X3

G---------------------------------|-----------------------------|
D---------------------------------|-------------------------2-2-|
A---------------------------------|-----------------------------|
E-2-2-2-2-2-2-2-2-2-2-2-2-2-2-2-2-|-2-2-2-2-2-2-2-2-2-2-2-2-----|

"Can't...stop...the...Painkillerrrrrrrrrrrrrrr.....PAIN!"

G-----|---------|---|-|-|-|---|
D-----|---------|---|-|-|-|---|
A-----|---2-0---|---|-|-|-|---|
E-2-2-|-2-----4-|-3~|~|~|~|-2-|

There ya have it. Feel free to comment.
            
Submit corrections



        Pain Killer lessons Hard to play? Try these video lessons and learn fast Pain Killer lessons
        
↑ Back to top | Tablatures and chords for acoustic guitar and electric guitar, ukulele, drums are parodies/interpretations of the original songs. You may use it for private study, scholarship, research or language learning purposes only