» » »

Journey - Who's Crying Now Bass

Artists:  A B C D E F G H I J K L M N O P Q R S T U V W X Y Z # 

Who's Crying Now Bass

(ver. 2) Click to play this song!
Journey
 Rating:
4/5 (4 votes)


 Who's Crying Now lessons Tabs too difficult? Try these video lessons and learn fast
 
                "loads of chorus on Bass.

Who’s Crying Now (Journey) Bass Tab

Intro
    A          F		  D	E     A
G|-----|----------|------------|-----|-----|
D|-----|--2-------|------2--0--|-----|-----|
A|-----|----------|---3--------|-----|-----| 
E|--5--|----3--1--|------------|--0--|--5--| 

Verse 1
G|-----------|-----------|------------|-----|-----|
D|-----------|-----------|------2--0--|-----|-----|
A|-----------|--2--------|---3--------|-----|-----|   }   x2
E|--0--3--5--|-----3--1--|------------|--0--|--5--|

Chorus
G|----------------|------------------------|-------------------|--------------|
D|----------------|------------------------|-------------------|----2--0--0-0-|
A|-----------3--2-|----------------------3-|-------------------|-3------------|
E|--0--3--5-------|-5--5-5--5-5--5-5---3---|--1--1-1--1-1--1-1-|--------------|


G|--------|-------------|--------------|------------------------|
D|--------|-------------|--------------|------------------------|
A|--------|-------------|---------3--2-|----------------------3-|
E|-3--3-3-|-5--5-5--5-5-|-0--3--5------|-5--5-5--5-5--5-5---3---|

G|-------------------|--------------|--------|------------------|
D|-------------------|--------------|--------|------------------|
A|-------------------|-3--4--5--5-5-|--------|------------------|
E|--1--1-1--1-1--1-1-|--------------|-3--3-3-|-5--5-5--5-5--5-5-|

Verse 2  (same as V1)
Chorus   (same)

Middle 8
    F    D   A       F    D     C       G        Eb
G|--------------|------------------------------------|
D|-------0------|----------0-------------------------|
A|--------------|----------------3-------------------|
E|--1--------5--|--3-1------------------3---------6--|

Intro

Chorus(Quiet)
G|---------|----2----|------------|-----|-----|
D|---------|--2---3--|------2--0--|-----|-----|
A|---------|---------|---3--------|-----|-----| 
E|-0--3--5-|---------|------------|--0--|--5--| 

High slap fill
     Slide     pull/slap
G|--3-/-5-----------------------------|
D|--------------3--5------------------|
A|------------------------------------|
E|------------------------5--5-5--5-5-|etc.
"            
Submit corrections



        Who's Crying Now lessons Hard to play? Try these video lessons and learn fast Who's Crying Now lessons
        
↑ Back to top | Tablatures and chords for acoustic guitar and electric guitar, ukulele, drums are parodies/interpretations of the original songs. You may use it for private study, scholarship, research or language learning purposes only