» » »

John Prine - Souvenirs Tabs

Artists:  A B C D E F G H I J K L M N O P Q R S T U V W X Y Z # 

Souvenirs Tabs

(ver. 2) Click to play this song!
John Prine
 Rating:
4/5 (4 votes)

 Souvenirs lessons Tabs too difficult? Try these video lessons and learn fast
 
                ----------------------------------------------------------------------------
                        Souvenirs - John Prine
----------------------------------------------------------------------------


Tuning: Standard (CAPO 5th Fret)



Intro:
e|-------0--0h2---0--------------------------------------0-----2-0---------|
B|-3--3--3--3-------3------3-------------3-----3-----2-----2---------3---2-|
G|-2--2--2--2---2-----0----------------0---------0-----2-----0-----0---0---|
D|-0--0--0--0----------------0---0-----------0-----------------------------|
A|-------------------------------------------------0-----------0-----------|
E|----------------------3------3---0h3-----2-------------------------------|

e|------0------0h2---0------0h2---2-------5-------0------------------------|
B|---------3------------3---3---------3-------3-------3-----------3--------|
G|----2------2-2---2------2-2---2-------2-------2-----2---0---0------------|
D|-0------------------0-------------0-------------------0-------0---0------|
A|-------0----------------------------------0-------0----------------------|
E|----------------------------------------------------------3-----3---0h3--|

e|--------------------0-------2-0----------------0-------0h2---0--------2--|
B|----3-----3-----2-------2---------3---2---3--------3---3---------3----3--|
G|------------0-----0-------0-----0---0---0-2--2-------2-2---2-------2--2--|
D|--0-----0---------------------------------0------0--------------------0--|
A|--------------0-------0-----0----------------------------------0---------|
E|------2------------------------------------------------------------------|



Verse 1:
e|-----------------------------------0-----2-0------------|
B|-----3-------------3-----3-----2-----2---------3----2---|
G|-----------------0---------0-----2-----0-----0----0-----|
D|-------0---0-----------0--------------------------------|
A|-----------------------------0-----------0--------------|
E|--3------3---0h3-----2----------------------------------|

e|------0------0h2---0------0h2---2-------5-------0------------------------|
B|---------3------------3---3---------3-------3-------3-----------3--------|
G|----2------2-2---2------2-2---2-------2-------2-----2---0---0------------|
D|-0------------------0-------------0-------------------0-------0---0------|
A|-------0----------------------------------0-------0----------------------|
E|----------------------------------------------------------3-----3---0h3--|

e|--------------------0-------2-0----------------0-------0h2---0--------2--|
B|----3-----3-----2-------2---------3---2---3--------3---3---------3----3--|
G|------------0-----0-------0-----0---0---0-2--2-------2-2---2-------2--2--|
D|--0-----0---------------------------------0------0--------------------0--|
A|--------------0-------0-----0----------------------------------0---------|
E|------2------------------------------------------------------------------|



Verse 2:
e|-----------------------------------0-----2-0------------|
B|-----3-------------3-----3-----2-----2---------3----2---|
G|-----------------0---------0-----2-----0-----0----0-----|
D|-------0---0-----------0--------------------------------|
A|-----------------------------0-----------0--------------|
E|--3------3---0h3-----2----------------------------------|

e|------0------0h2---0------0h2---2-------5-------0------------------------|
B|---------3------------3---3---------3-------3-------3-----------3--------|
G|----2------2-2---2------2-2---2-------2-------2-----2---0---0------------|
D|-0------------------0-------------0-------------------0-------0---0------|
A|-------0----------------------------------0-------0----------------------|
E|----------------------------------------------------------3-----3---0h3--|

e|-------------------0-------2-0----------------0-------0h2---0--------0h2-|
B|---3-----3-----2-------2---------3---2---3--------3---3---------3----3---|
G|-----------0-----0-------0-----0---0---0-2--2-------2-2---2-------2--2---|
D|-0-----0---------------------------------0------0--------------------0---|
A|-------------0-------0-----0----------------------------------0----------|
E|-----2-------------------------------------------------------------------|

e|-----------|
B|-----------|
G|-----------|
D|--0--------|
A|-----4--2--|
E|-----------|



Chorus:
A7                      D
Memories, they can't be boughten.
A7                                 D
They can't be won at carnivals for free.
A7                       D
Well it took me years to get those souvenirs,
      G                                     A7
And i don't know how they slipped away from me.



(Repeat Intro)


(Repeat Verse 1)


(Repeat Verse 2)


(Repeat Chorus)


(Repeat Intro)



| /  slide up
| \  slide down
| h  hammer-on
| p  pull-off
| ~  vibrato
| +  harmonic
| x  Mute note
===========================================================================
            
Submit corrections


        Souvenirs lessons Hard to play? Try these video lessons and learn fast Souvenirs lessons
        
↑ Back to top | Tablatures and chords for acoustic guitar and electric guitar, ukulele, drums are parodies/interpretations of the original songs. You may use it for private study, scholarship, research or language learning purposes only