» » »

John Prine - Sam Stone Tabs

Artists:  A B C D E F G H I J K L M N O P Q R S T U V W X Y Z # 

Sam Stone Tabs

(ver. 1) Click to play this song!
John Prine
 Rating:
4/5 (4 votes)

 Sam Stone lessons Tabs too difficult? Try these video lessons and learn fast
 
                CAPO 2

INTRO:

      C          F               G7            C             G
e|------0----------1---------------------1----------0---------------------| 
B|-1--------1----------1---1--------0----------1--------1---1-------------|
G|----0------------------------2------------------0-------0-----0---0---0-| 
D|------------2--------------3--------0------0----------------------------|
A|-3------3----------3-------------------------3------3-----3-----0---2---|
E|---------------1-------1-------3---------3------------------3-----------|

VERSE:

  C                                 F
e|-------0----------------0---------------1---------------1--------------|
B|---1-------1--------1-------1-------1-------1-------1-------1----------| 
G|-----0---------0------0---------0-----2---------2---------------2------|
D|-------------2----------------2---------------3-------2-------3--------|
A|-3-------0-------3--------3--------------------------------------------|
E|----------------------------------1-------1-------1-------1------------|

  G                                  C
E|-------3-----------------3---------------0---------------0-------------|
B|---0-------0---------0-------0-------1-------1-------1-------1---------|
G|-----0---------0-------0---------0-----0---------0-----0---------0-----|
D|-------------0-----------------0---------------2---------------2-------|
A|-----------------------------------3-------3-------3-------3-----------|
E|-3-------3---------3-------3-------------------------------------------| PLAY 2X

  F
e|-------1---------------1---------------1---------------1---------------|
B|---1-------1-------1-------1-------1-------1-------1-------1-----------|
G|-----2---------2-----2---------2-----2---------2-----2---------2-------|
D|-------------3---------------3---------------3---------------3---------|
A|-----------------------------------------------------------------------|
E|-1-------1-------1-------1-------1-------1-------1-------1-------------|

  D                               G                G7
e|-------2---------------2---------------3---------------1---------------|
B|---3-------3---3---3-------3---3---0-------0-------0-------0-----------|
G|-----2-------2-------2-------2-------0---------0-----0---------0-------|
D|-0-------0-------0-------0-------------------0---------------0---------|
A|-----------------------------------------------------------------------|
E|---------------------------------3-------3-------3-------3-------------|
   
  D                                G               G7
e|-------2---------------2---------------3---------------1---------------|
B|---3-------3---3---3-------3---3---0-------0-------0-------------------|
G|-----2-------2-------2-------2-------0---------0-----0-----------------|
D|-0-------0-------0-------0-------------------0-------------------------|
A|------------------------------------------------------------0-2--------|
E|---------------------------------3-------3-------3--------3------------|


CHORUS:

  C                                 Dm
e|-------0---------------0---------------1---------------1---------------|
B|---1-------1-------1-------1-------3-------3---3---3-------3---3-------|
G|-----0---------0-----0---------0-----2-------2-------2-------2---------|
D|-------------2---------------2---0-------0-------0-------0-------------|
A|-3-------3-------3-------3---------------------------------------------|
E|-----------------------------------------------------------------------|

  F                               G                G7
e|-------1---------------1---------------3---------------1---------------|
B|---1-------1-------1-------1-------0-------0-------0-------0-----------|
G|-----2---------2-----2---------2-----0---------0-----0---------0-------|
D|-------------3---------------3---------------0---------------0---------|
A|-----------------------------------------------------------------------|
E|-1-------1-------1-------1-------3-------3-------3-------3-------------|

   C                               Am
e|-------0---------------0---------------0---------------0---------------|
B|---1-------1-------1-------1-------1-------1-------1-------1-----------|
G|-----0---------0-----0---------0-----2---------2-----2---------2-------|
D|-------------2---------------2---------------2---------------2---------|
A|-3-------3-------3-------3-------0-------0-------0-------0-------------|
E|-----------------------------------------------------------------------|

   D                               G
e|-------2---------------2---------------3-------------------------------|
B|---3-------3---3---3-------3---3---0-------0---------------------------|
G|-----2-------2-------2-------2-------0---------0----0---0---0----------|
D|-0-------0-------0-------0-------------------0-------------------------|
A|------------------------------------------------------0---2------------|
E|---------------------------------3-------3--------3--------------------|
            
Submit corrections


        Sam Stone lessons Hard to play? Try these video lessons and learn fast Sam Stone lessons
        
↑ Back to top | Tablatures and chords for acoustic guitar and electric guitar, ukulele, drums are parodies/interpretations of the original songs. You may use it for private study, scholarship, research or language learning purposes only