» » »

John Butler Trio - Home Is Where The Heart Is Bass

Artists:  A B C D E F G H I J K L M N O P Q R S T U V W X Y Z # 

Home Is Where The Heart Is Bass

(ver. 2) Click to play this song!
John Butler Trio
 Rating:
4/5 (4 votes)


 Home Is Where The Heart Is lessons Tabs too difficult? Try these video lessons and learn fast
 
                theis song sounds like its being played on a double bass or maby a fretless
but it does he job with a normal fretted bass:D its simple but so much fun
to play and very effectice to :D enjoy. any mistakes please comment.
A.J

Normal tuning

intro
|---------|-----------|
|-3/4\3-1-|-3/4\3-0-1-|
|---------|-----------|
|---------|-----------|

main riff
|-----5-------|
|--------x--1-| repeat lost! so easy but
|-3-x---------|              so much fun
|-------------|

chorus            x2
|-------------------|-----5------|----------------|
|-1-11-11-2-3-33-33-|--------x-1-|-1-11-2-3-33-33-|
|-------------------|-3-x--------|----------------|
|-------------------|------------|----------------|

interlude
|---------|-------------------|
|-3/4\3-1-|-3/4\3--------1--3-|
|---------|--------1--3-------|
|---------|-------------------|

bridge
|----------5-----------------|
|-3/4\3-1-----1-2-3--------1-| repeat lots
|--------------------1--3----| 
|----------------------------|

end of bridge
|---------|-----------|
|-3/4\3-1-|-3/4\3-0-1-|
|---------|-----------|
|---------|-----------|

bass solo
|-----5-------|----5~-|
|---------x-1-|-------|
|-3-x---------|-3-----|
|-------------|-------|

main riff
|-----5-------|
|--------x--1-| repeat lost!
|-3-x---------|              
|-------------|

chorus            x2
|-------------------|-----5------|----------------|
|-1-11-11-2-3-33-33-|--------x-1-|-1-11-2-3-33-33-|
|-------------------|-3-x--------|----------------|
|-------------------|------------|----------------|

outro
|---------|-------------|
|-3/4\3-1-|-3/4\3-0-1---|
|---------|-----------3-|
|---------|-------------|

and thats it enjoy A.J
            
Submit corrections



        Home Is Where The Heart Is lessons Hard to play? Try these video lessons and learn fast Home Is Where The Heart Is lessons
        
↑ Back to top | Tablatures and chords for acoustic guitar and electric guitar, ukulele, drums are parodies/interpretations of the original songs. You may use it for private study, scholarship, research or language learning purposes only