» » »

Joey Cape - I Must Be Hateful Tabs

Artists:  A B C D E F G H I J K L M N O P Q R S T U V W X Y Z # 

I Must Be Hateful Tabs

(ver. 1) Click to play this song!
Joey Cape
 Rating:
3.8/5 (21 vote)

 I Must Be Hateful lessons Tabs too difficult? Try these video lessons and learn fast
 
                    F                          
e|--------------|         
B|--------------|
G|--------------| 
D|----7------8--| 
A|--8---8-10----|  x16
E|--------------|



F
  I can't make the damn phone ring
F
  It's simply pathetic if I call you anymore




- Riff starts in "I can't"

    Dm              A#                
e|-----------------------------|         
B|--6---6---6---6---6---6---6--|
G|----7-------7-------7--------| 
D|-----------------------------| 
A|-----------------------------|  
E|-----------------------------|


Dm                           A#
  I can't figure it now we tallied our scores
                 F
  I got knocked out 



- Riff starts in "knocked out"

    F                          
e|--------------|         
B|--------------|
G|--------------| 
D|----7------8--| 
A|--8---8-10----|  x12
E|--------------|




F
  I know when you come to town
F
  I know where you drop your dime and whom it's for




- Riff starts in "But I'm not"

    Dm              A#                
e|-----------------------------|         
B|--6---6---6---6---6---6---6--|
G|----7-------7-------7--------| 
D|-----------------------------| 
A|-----------------------------|  
E|-----------------------------|

Dm                            A#                     
  But I'm not good enough to share our cup of coffee 




- Riff starts in "15 years"

    F                          
e|--------------|         
B|--------------|
G|--------------| 
D|----7------8--| 
A|--8---8-10----|  
E|--------------|



F                                     
  15 years was long enough




- Chorus Riff:

    F        C      F    C   Dm  A7  A#   C                 
e|-------------------------------------------|         
B|-------------------------------------------|
G|--10----10-9----9-10---9---7---5---3----5--| 
D|-----10------10----------------------------| 
A|-------------------------------------------|  
E|-------------------------------------------|

F C F          C        Dm        A7
      Look at me I'm an old colleague
               A#                     C
      Another hard knocks day acquaintance




- Riff after acquaintance

                             
e|-----------|         
B|--1--------|
G|----0------| 
D|------0----| 
A|--------0--|  
E|-----------|




- Riff after "finally"


    F    C   Dm  A7  A#   C
e|---------------------------|         
B|---------------------------|
G|--10---9---7---5---3----5--| 
D|---------------------------| 
A|---------------------------|  
E|---------------------------|


  F    C          Dm      A7
  Finally you are free of me
              A#            C
  It must be true it only makes sense



A#           C         F
  But it's always my fault
               A7             A#
  Always it's your forgiveness                     -------\ here you can strumming the notes 
         C            F              A7            -------/ or just play the chords
  This unbalanced resolve I must be hateful
A#        C          F            A7           A#
  So I hang up the phone only a small sacrifice
        C            A#
  You still hear me now 




- Riff played through the post-chorus and the "F note" part of the verse: 

    F                          
e|--------------|         
B|--------------|
G|--------------| 
D|----7------8--| 
A|--8---8-10----|  x12
E|--------------|


F
  Dear you the vinyl it was blue
F
  Stalking poor Blake commiserating drunks at sea




- Riff played after "Do you remember"

    Dm              A#                
e|-----------------------------|         
B|--6---6---6---6---6---6---6--|
G|----7-------7-------7--------| 
D|-----------------------------| 
A|-----------------------------|  
E|-----------------------------|

Dm                     A#
  Do you remember when jawbreaker rocked "The boat"?




- Riff played after "I'm sure"

    F                          
e|--------------|         
B|--------------|
G|--------------| 
D|----7------8--| 
A|--8---8-10----|  x12
E|--------------|

               F               
  I'm sure you do and don't 




- Chorus Riff:

    F        C      F    C   Dm  A7  A#  C                 
e|------------------------------------------|         
B|------------------------------------------|
G|--10----10-9----9-10---9---7---5---3---5--| 
D|-----10------10---------------------------| 
A|------------------------------------------|  
E|------------------------------------------|

     
F C F          C        Dm        A7
      Look at me I'm an old colleague
               A#                     C
      Another hard knocks day acquaintance




- Riff after acquaintance

                             
e|-----------|         
B|--1--------|
G|----0------| 
D|------0----| 
A|--------0--|  
E|-----------|




- Riff after "finally"


    F    C   Dm  A7  A#  C
e|--------------------------|         
B|--------------------------|
G|--10---9---7---5---3---5--| 
D|--------------------------| 
A|--------------------------|  
E|--------------------------|


F      C          Dm      A7
  Finally you are free of me
               A#           C
  It must be true it only makes sense




A#         C           F               A7            A#   
  I can still see you now Pictures are in every town
         C              F                A7      A#   -------\ here you can strumming the notes
  I can still write it down I must be hateful         -------/ or just play the chords
        C           F             A7           A#     
  I can hang up the phone even at those lofty heights 
       C            A#
  You still hear me
           C            A#
  Can you still hear me?
           C            A#
  Do you still hear me now?            
Submit corrections


        I Must Be Hateful lessons Hard to play? Try these video lessons and learn fast I Must Be Hateful lessons
        
↑ Back to top | Tablatures and chords for acoustic guitar and electric guitar, ukulele, drums are parodies/interpretations of the original songs. You may use it for private study, scholarship, research or language learning purposes only