Home » J » Joe Hisaishi »

Joe Hisaishi - The Path Of Wind Tabs

Artists:  A B C D E F G H I J K L M N O P Q R S T U V W X Y Z # 

The Path Of Wind Tabs

(ver. 1) Click to play this song!
Joe Hisaishi
 Rating:
4.3/5 (6 votes)
                Capo on 1st fret
 
 
 
     S S S S E  S E  S S S E  S S    S S S S E  S E  S S S E  S S
e|----2-----2-------2-----2------|----0-----0-------0-----0------|
B|------5------5------5------5---|------3------3------3------3---|
G|--------4------4------4------4-|--L-----2------2------2------2-|
D|-------------------------------|-------------------------------|
A|-------------------------------|-------------------------------|
E|-------------------------------|-------------------------------|
 
 
    S S S S E  S S S S S S E  S S    S S S S E  S S S S S S E  S S
e|----2-0---2--0-----2-0---2--0---|----0-----0--------0-----0------|
B|--------0------0-------0------0-|------3------3-------3------3---|
G|--------------------------------|--------2------2-------2------2-|
D|--------------------------------|--------------------------------|
A|--------------------------------|--------------------------------|
E|--3--------------3--------------|--2--------------2--------------|
 
 
    S S S S E  S S S S S S E  S S    S S S S E  S S Q    E  E
e|----2-0---2--0-----2-0---2--0---|----0-----0-----------------|
B|--------0------0-------0------0-|------3------3--------0--3--|
G|--------------------------------|--------2------2------------|
D|--------------------------------|----------------------4-----|
A|--------------------------------|----------------------------|
E|--3-------3------3-------3------|--2-------2-----------------|
 
 
*Segno
 
     E  E  E  E  E  E  E  E     E  E  E  E  E  E  E  E
e|---0-----0--2--------------|--0-----0--5--2-----2--5--|
B|---0-----------3-----0--3--|--------------------------|
G|*--------------------0-----|--------------------------|
D|*-----0-----------0--------|-----0-----------0--------|
A|---------------------------|--------------------------|
E|---3--------3--------3-----|--2--------2--------2-----|
 
 
    E  E  E   E  E  E  E  E     E  E  E  E  E  E  E  E
e|--7--7--7--10--9--7--5--3--|--2-----------2-----------|
B|--8------------------------|--------5--------------3--|
G|--7------------0-----------|-----------4--3-----4-----|
D|---------------------------|-----4-----------4--------|
A|---------------------------|--------------------------|
E|--0---------0--------0-----|--2--------2--------2-----|
 
 
    E  E  E  E  E  E  E  E     E  E  E  E  E  E  E  E
e|--0-----0--2--------------|--0-----0--5--2-----2--5--|
B|--0-----------3-----0--3--|--------------------------|
G|--------------------0-----|--------------------------|
D|-----0-----------0--------|-----0-----------0--------|
A|--------------------------|--------------------------|
E|--3--------3--------3-----|--2--------2--------2-----|
 
 
 
                                1.                        2.
    E  E  E   E   E   E   E  E     Q.     Q.     E  E       Q.     Q.     E  E
e|--7--7--7--10---9-------------|-----------------------||----------------------|
B|--8------------10--12------0--|--3-------------0--3---||--3-------------------|
G|--7-------------9------11-----|--2-------------------*||--4-------------------|
D|------------------------------|--4-------------------*||--4-------------------|
A|----------------9-------------|--2------2------0------||--2------2------2--1--|
E|--0---------------------------|-----------------------||----------------------|
 
 
    E  E  E  E  Q    Q       E  E  E  E  Q    E  E     E  E  E  E  Q    Q
e|-----3--3-----3---------|-----------3--3----2--0--|--2--3--2---------------|
B|--1--------1------------|-----1--1----------------|--3--------5--3---------|
G|--0---------------------|-------------------------|--2---------------------|
D|-------------------2----|-------------------------|------------------------|
A|--0--------0--0---------|--0--------0--0----------|--2--------2-------2----|
E|------------------------|-------------------------|------------------------|
 
 
    E  E  E  E  E  E  E  E     E  E  E  E  Q    Q       E  E  E  E  Q    E  E
e|--------------2-----------|-----3--3-----3---------|-----------3--3----2--0--|
B|-----------3-----3--------|--1--------1------------|-----1--1----------------|
G|--2-----4-----------4-----|--0---------------------|-------------------------|
D|-----4-----------------4--|-------------------2----|-------------------------|
A|--2-----------------------|--0--------0--0---------|--0--------0--0----------|
E|--------------------------|------------------------|-------------------------|
 
 
 
                                                 *Da Segno
                             ^
    E  E  E  Q    Q    E     Q.     E  E  E  E  E       E  E  E  E  E  E  E  E
e|--2--3--5---------------|------------------------||---0-----0--2--------------|
B|--3--------3------------|--0---------------0--3--||---0-----------3-----0--3--|
G|--2-------------4----2--|--0---------------------||*--------0-----------0-----|
D|------------------------|--2---------------------||*-----0-----0-----0-----0--|
A|--2--------2------------|--0------2-----2--------||---------------------------|
E|------------------------|------------2-----------||---3-----------3-----------|
 
 
    E  E  E  E  E  E  E  E     E  E  E   E  E  E  E  E
e|--0-----0--5--2-----2--5--|--7--7--7--10--9--7--5--3--|
B|--------------3-----------|--8--8--8------------------|
G|--------------------------|--7------------0-----------|
D|-----0--4--------4--------|---------------------------|
A|--------------------------|---------------------------|
E|--2-----------2-----2-----|--0---------0--------0-----|
 
 
    E  E  E  E  E  E  E  E     E  E  E  E  E  E  E  E
e|--2-----0-----2-----------|--0-----0--2--------------|
B|-----------0--------0--3--|--0-----------3-----0--3--|
G|--------------------------|--------0-----------0-----|
D|--------4-----------4-----|-----0-----0-----0-----0--|
A|-----4-----4-----4-----4--|--------------------------|
E|--2-----------2-----------|--3-----------3-----------|
 
 
    E  E  E  E  E  E  E  E     E  E  E   E   E   E   E  E
e|--0-----0--5--2-----2--5--|--7--7--7--10---9-------------|
B|--------------3-----------|--8--8--8------10--12---------|
G|-----------2--------------|--7-------------9------11-----|
D|-----0--4--------4--------|---------------------------9--|
A|--------------------------|----------------9-------------|
E|--2-----------2-----2-----|--0---------------------------|
 
 
  1.                      2.
    Q.     Q.     E  E       H.           E  E     Q    E  E  Q    Q
e|-----------------------||---------------------|--0----------0----2----|
B|--3-------------0--3---||--3---------------3--|----------0------------|
G|--2-------------------*||--4------------4-----|-------0---------------|
D|--4-------------------*||--4------------------|-----------------------|
A|--2------2------0------||--2------------------|--3--------------------|
E|-----------------------||---------------------|-----------------------|
 
 
    E  E  E  E  Q    Q       E  E  E  E  Q    Q       Q    Q    Q    Q
e|------------------------|--0-----------0----5----|--2--------------0----|
B|--3----------------3----|--------0---------------|--0---------2---------|
G|--------2-----4---------|-----0-----0------------|----------------------|
D|-----4-----4------------|------------------------|-------4--------------|
A|--2---------------------|--3---------------------|--2-------------------|
E|------------------------|------------------------|----------------------|
 
 
    ^
    W
e|--5----------------||
B|--5----------------||
G|--7----------------||
D|-------------------||
A|-------------------||
E|-------------------||
            
Submit corrections

↑ Back to top | Tablatures and chords for acoustic guitar and electric guitar, ukulele, drums are parodies/interpretations of the original songs. You may use it for private study, scholarship, research or language learning purposes only