» » »

Jimmy Buffett - Havana Daydreamin Tabs

Artists:  A B C D E F G H I J K L M N O P Q R S T U V W X Y Z # 

Havana Daydreamin Tabs

(ver. 1) Click to play this song!
Jimmy Buffett
 Rating:
3.2/5 (21 vote)

 Havana Daydreamin  lessons Tabs too difficult? Try these video lessons and learn fast
 
                 Intro
  Q=112
  N.C.       A       D     E           D
 4/4
  Gtr I (Ac. Gtr.)
  W          E E E E E E E E   +E  E E E +E  E E E
|----------|---------2-----4-|-(4)-----2-(2)-------||
|----------|-2-------3-3---5-|-(5)-5---3-(3)-3-----||
|----------|---2---------2---|-------4---------2---||
|----------|-----2-----------|-------------------0-||
|----------|-------0---------|---------------------||
|----------|-----------------|---------------------||


   1st - 3rd Verses
    $
    A       D     E           D
    E E E E E E E E   +E  E E E +E  E E E
||----------2-----4-|-(4)-----2-(2)-------|
||o-2-------3-3---5-|-(5)-5---3-(3)-3-----|
||----2---------2---|-------4---------2---|
||------2-----------|-------------------0-|
||o-------0---------|---------------------|
||------------------|---------------------|


  A       D     E           D
  E E E E E E E E   +E  E E E +E  E E E
|---------2-----4-|-(4)-----2-(2)-------|
|-2-------3-3---5-|-(5)-5---3-(3)-3-----|
|---2---------2---|-------4---------2---|
|-----2-----------|-------------------0-|
|-------0---------|---------------------|
|-----------------|---------------------|


  A       D     E           D
  E E E E E E E E   +E  E E E +E  E E E
|---------2-----4-|-(4)-----2-(2)-------|
|-2-------3-3---5-|-(5)-5---3-(3)-3-----|
|---2---------2---|-------4---------2---|
|-----2-----------|-------------------0-|
|-------0---------|---------------------|
|-----------------|---------------------|


  A       D     E           D
  E E E E E E E E   +E  E E E +E  E E E
|---------2-----4-|-(4)-----2-(2)--------|
|-2-------3-3---5-|-(5)-5---3-(3)-3------|
|---2---------2---|-------4---------2----|
|-----2-----------|-------------------0--|
|-------0---------|----------------------|
|-----------------|----------------------|


                       DsuD4                                 DsuD4
  Q  E E E E E E   +E  Q  E +E  E E E   Q  E E E E E E   +E  Q  E +E  E E E
|-2--2-2-2-2-2-2-|-(2)-3--2-(2)-2-2-x-|-2--2-2-2-2-2-2-|-(2)-3--2-(2)-2-2-x--|
|-3--3-3-3-3-3-3-|-(3)-3--3-(3)-3-3-x-|-3--3-3-3-3-3-3-|-(3)-3--3-(3)-3-3-x--|
|-2--2-2-2-2-2-2-|-(2)-2--2-(2)-2-2-x-|-2--2-2-2-2-2-2-|-(2)-2--2-(2)-2-2-x--|
|-0--0-0-0-0-0-0-|-(0)-0--0-(0)-0-0-x-|-0--0-0-0-0-0-0-|-(0)-0--0-(0)-0-0-x--|
|----------------|--------------------|----------------|---------------------|
|----------------|--------------------|----------------|---------------------|


                       DsuD4                             A
  Q  E E E E E E   +E  Q  E +E  E E E   Q  E E E E E E   Q  E E E E E E
|-2--2-2-2-2-2-2-|-(2)-3--2-(2)-2-2-x-|-2--2-2-2-2-2-2-|-0--0-0-0-0-0-0--||
|-3--3-3-3-3-3-3-|-(3)-3--3-(3)-3-3-x-|-3--3-3-3-3-3-3-|-2--2-2-2-2-2-2--||
|-2--2-2-2-2-2-2-|-(2)-2--2-(2)-2-2-x-|-2--2-2-2-2-2-2-|-2--2-2-2-2-2-2--||
|-0--0-0-0-0-0-0-|-(0)-0--0-(0)-0-0-x-|-0--0-0-0-0-0-0-|-2--2-2-2-2-2-2--||
|----------------|--------------------|----------------|-0--0-0-0-0-0-0--||
|----------------|--------------------|----------------|-----------------||


 Chorus
  E
  Q  E E   E E  E E   Q    E E  E  E E E
|-0--0-0---0-0--0-0-|-0----0-0--0--0-0-0-|
|-0--0-0---0-0--0-0-|-0----0-0--0--0-0-0-|
|-1--1-1---1-1--1-1-|-1----1-1--1--1-1-1-|
|-2--2-2---2-2--2-2-|-2----2-2--2--2-2-2-|
|-2--2-2---2-2--2-2-|-2----2-2--2--2-2-2-|
|-0--0-0---0-0--0-0-|-0----0-0--0--0-0-0-|
|
| Gtr II (Clean El. Gtr.)
|                       ~~~~~~~~~~~
| H        E E  E E   E Q.     +Q    Q
|-------------------|--------------------|
|-------------------|---9------(9)-------|
|------------9-11-9-|--------------------|
|--------/11--------|--------------------|
|-------------------|--------------------|
|-------------------|--------------------|


                                                     To Coda
  D
  Q  E E  E    E       E       E    Q          E  E E E E E
|-2--2-2--2----2-------2-------2-|--2----------2--2-2-2-2-2--||
|-3--3-3--3----3-------3-------3-|--3----------3--3-3-3-3-3--||
|-2--2-2--2----2-------2-------2-|--2----------2--2-2-2-2-2--||
|-0--0-0--0----0-------0-------0-|--0----------0--0-0-0-0-0--||
|--------------------------------|---------------------------||
|--------------------------------|---------------------------||
|
|                                              ~~~
|         |-------3-------|
| H       Q       Q       Q         E     +E   H.
|--------------------------------|---------------------------||
|--------12b14---12b14---12b14---|-12b14r(12)-10-------------||
|--------------------------------|---------------------------||
|--------------------------------|---------------------------||
|--------------------------------|---------------------------||
|--------------------------------|---------------------------||


 Interlude
  1.
  A       D     E           D
  E E E E E E E E   +E  E E E +E  E E E
|---------2-----4-|-(4)-----2-(2)-------|
|-2-------3-3---5-|-(5)-5---3-(3)-3-----|
|---2---------2---|-------4---------2---|
|-----2-----------|-------------------0-|
|-------0---------|---------------------|
|-----------------|---------------------|
|
|               ~~~~~~~~              ~~~
| H       E E E E   +Q.     E +E  E E E
|-----------------|---------------------|
|-----------------|---------------------|
|---------------2-|-(2)---------------2-|
|-----------2-4---|---------------2-4---|
|---------4-------|---------4-(4)-------|
|-----------------|---------------------|


  A         D     E           D
   E  E E E E E E E   +E  E E E +E  E E E
|-----------2-----4-|-(4)-----2-(2)---------||
|--2--------3-3---5-|-(5)-5---3-(3)-3------o||
|-----2---------2---|-------4---------2-----||
|-------2-----------|-------------------0---||
|---------0---------|----------------------o||
|-------------------|-----------------------||
|
|~~~~~            ~~~~~~~~
| +H        E E E E   +H         E  E E E
|-------------------|-------------------5---||
|-------------------|---------------5-7----o||
|-(2)-------------2-|-(2)-------/6----------||
|-------------2-4---|-----------------------||
|-----------4-------|----------------------o||
|-------------------|-----------------------||


 Interlude
  2.
  A
  Q  E E E E E E    Q   E E  E  E E E    Q   E E E E E E    Q   E E E E E E
|-0--0-0-0-0-0-0-|--0---0-0--0--0-0-0-|--0---0-0-0-0-0-0-|--0---0-0-0-0-0-0--||
|-2--2-2-2-2-2-2-|--2---2-2--2--2-2-2-|--2---2-2-2-2-2-2-|--2---2-2-2-2-2-2--||
|-2--2-2-2-2-2-2-|--2---2-2--2--2-2-2-|--2---2-2-2-2-2-2-|--2---2-2-2-2-2-2--||
|-2--2-2-2-2-2-2-|--2---2-2--2--2-2-2-|--2---2-2-2-2-2-2-|--2---2-2-2-2-2-2--||
|-0--0-0-0-0-0-0-|--0---0-0--0--0-0-0-|--0---0-0-0-0-0-0-|--0---0-0-0-0-0-0--||
|----------------|--------------------|------------------|-------------------||
|
|              ~~~~~~~~             ~~~~~~~~           ~~~~~~~~
| H      E E E E   +Q.    E +E  E E E   +H       E E E E   +H       E E E E
|----------------|--------------------|------------------|-------------------||
|----------------|--------------------|------------------|------------5------||
|--------------2-|-(2)--------------2-|-(2)------------2-|-(2)------6--------||
|----------2-4---|--------------2-4---|------------2-4---|--------------7----||
|--------4-------|--------4-(4)-------|----------4-------|-------------------||
|----------------|--------------------|------------------|-------------------||


 Guitar Solo
  E E  E      E   E  E  E  E   +E   E E  E  +E  E E E
|-----------------2--------4-|-(4)-------2--(2)-------|
|-2---------------3--3-----5-|-(5)--5----3--(3)-3-----|
|---2-------------------2----|--------4-----------2---|
|------2---------------------|----------------------0-|
|-------------0--------------|------------------------|
|----------------------------|------------------------|
|
| Q    E      E   E  E  E  E    E   E E  E  +Q.     E
|----------------------------|------------------------|
|-----17-----17--17-17----17-|------------------------|
|-----16b18==16r-16-14----14-|-----14---14-(14)-------|
|----------------------16----|-----16---14-(14)-------|
|----------------------------|------------------------|
|----------------------------|------------------------|


    E  E  E E   E  E  E  E    +E  E  E    E  +E   E  E      E
|---------------2--------4-|--(4)---------2--(2)----------------|
|---2-----------3--3-----5-|--(5)-5-------3--(3)--3-------------|
|------2--------------2----|---------4---------------2----------|
|---------2----------------|--------------------------------0---|
|-----------0--------------|------------------------------------|
|--------------------------|------------------------------------|
|
|   E  E  Q     E  E  E  E    +Q     Q       +E   E  E     +E
|--------------------------|------------------------------------|
|--------------------------|------------------------------------|
|-----------------------14-|-(14)---16b18r==(16)-14-16b18-(16)--|
|-----11----------14-16----|------------------------------------|
|-/12----12---/16----------|------------------------------------|
|--------------------------|------------------------------------|


  E E  E      E   E  E  E  E   +E   E E  E  +E  E E E
|-----------------2--------4-|-(4)-------2--(2)-------|
|-2---------------3--3-----5-|-(5)--5----3--(3)-3-----|
|---2-------------------2----|--------4-----------2---|
|------2---------------------|----------------------0-|
|-------------0--------------|------------------------|
|----------------------------|------------------------|
|
| Q    E      E   E  E  E  E    E   E E  E  +Q.     E
|----------------------------|------------------------|
|-----17-----17--17-17----17-|------------------------|
|-----16b18==16r-16-14----14-|-----14---14-(14)-------|
|----------------------16----|-----16---14-(14)-------|
|----------------------------|------------------------|
|----------------------------|------------------------|


    E  E  E E   E  E  E  E    +E  E  E E  +E   E  E E
|---------------2--------4-|--(4)------2--(2)----------|
|---2-----------3--3-----5-|--(5)-5----3--(3)--3-------|
|------2--------------2----|---------4------------2----|
|---------2----------------|------------------------0--|
|-----------0--------------|---------------------------|
|--------------------------|---------------------------|
|
|   E  E  Q     E  E  E  E    +Q     Q    +E   E  e E
|--------------------------|---------------------------|
|--------------------------|---------------------------|
|-----------------------14-|-(14)----------------------|
|-----11----------14-16----|--------16---(16)-14-14----|
|-/12----12---/16----------|---------------------------|
|--------------------------|---------------------------|


  E                                 D
  Q  E E E E E E   Q  E E E E E E   Q  E E E E E E   Q  E E E E E E
|-0--0-0-0-0-0-0-|-0--0-0-0-0-0-0-|-2--2-2-2-2-2-2-|-2--2-2-2-2-2-2--|
|-0--0-0-0-0-0-0-|-0--0-0-0-0-0-0-|-3--3-3-3-3-3-3-|-3--3-3-3-3-3-3--|
|-1--1-1-1-1-1-1-|-1--1-1-1-1-1-1-|-2--2-2-2-2-2-2-|-2--2-2-2-2-2-2--|
|-2--2-2-2-2-2-2-|-2--2-2-2-2-2-2-|-0--0-0-0-0-0-0-|-0--0-0-0-0-0-0--|
|-2--2-2-2-2-2-2-|-2--2-2-2-2-2-2-|----------------|-----------------|
|-0--0-0-0-0-0-0-|-0--0-0-0-0-0-0-|----------------|-----------------|


  E E E E E E E E   +E  E E E +E  E E E
|---------2-----4-|-(4)-----2-(2)-------|
|-2-------3-3---5-|-(5)-5---3-(3)-3-----|
|---2---------2---|-------4---------2---|
|-----2-----------|-------------------0-|
|-------0---------|---------------------|
|-----------------|---------------------|


                            D.S. al Coda
  E E E E E E E E   +E  E E E +E  E E E
|---------2-----4-|-(4)-----2-(2)--------||
|-2-------3-3---5-|-(5)-5---3-(3)-3------||
|---2---------2---|-------4---------2----||
|-----2-----------|-------------------0--||
|-------0---------|----------------------||
|-----------------|----------------------||


                                    Chorus
  &
  A                                  E
  Q  E E E E E E   Q  E E E E E E    Q  E E   E E  E E   Q    E E  E  E E E
|-0--0-0-0-0-0-0-|-0--0-0-0-0-0-0-||-0--0-0---0-0--0-0-|-0----0-0--0--0-0-0--|
|-2--2-2-2-2-2-2-|-2--2-2-2-2-2-2-||-0--0-0---0-0--0-0-|-0----0-0--0--0-0-0--|
|-2--2-2-2-2-2-2-|-2--2-2-2-2-2-2-||-1--1-1---1-1--1-1-|-1----1-1--1--1-1-1--|
|-2--2-2-2-2-2-2-|-2--2-2-2-2-2-2-||-2--2-2---2-2--2-2-|-2----2-2--2--2-2-2--|
|-0--0-0-0-0-0-0-|-0--0-0-0-0-0-0-||-2--2-2---2-2--2-2-|-2----2-2--2--2-2-2--|
|----------------|----------------||-0--0-0---0-0--0-0-|-0----0-0--0--0-0-0--|
|
| Gtr II
|                                                          ~~~~~~~~~~~
| W                W                 H        E E  E E   E Q.     +Q    Q
|----------------|----------------||-------------------|---------------------|
|----------------|----------------||-------------------|---9------(9)--------|
|----------------|----------------||------------9-11-9-|---------------------|
|----------------|----------------||--------/11--------|---------------------|
|----------------|----------------||-------------------|---------------------|
|----------------|----------------||-------------------|---------------------|


  D
  Q  E E  E    E       E       E    Q          E  E E E E E
|-2--2-2--2----2-------2-------2-|--2----------2--2-2-2-2-2-||
|-3--3-3--3----3-------3-------3-|--3----------3--3-3-3-3-3-||
|-2--2-2--2----2-------2-------2-|--2----------2--2-2-2-2-2-||
|-0--0-0--0----0-------0-------0-|--0----------0--0-0-0-0-0-||
|--------------------------------|--------------------------||
|--------------------------------|--------------------------||
|
|                                              ~~~
|         |-------3-------|
| H       Q       Q       Q         E     +E   H.
|--------------------------------|--------------------------||
|--------12b14---12b14---12b14---|-12b14r(12)-10------------||
|--------------------------------|--------------------------||
|--------------------------------|--------------------------||
|--------------------------------|--------------------------||
|--------------------------------|--------------------------||


 Outro
  A       D     E           D
  E E E E E E E E   +E  E E E +E  E E E
|---------2-----4-|-(4)-----2-(2)--------|
|-2-------3-3---5-|-(5)-5---3-(3)-3------|
|---2---------2---|-------4---------2----|
|-----2-----------|-------------------0--|
|-------0---------|----------------------|
|-----------------|----------------------|
|
| W                  W
|-----------------|----------------------|
|-----------------|----------------------|
|-----------------|----------------------|
|-----------------|----------------------|
|-----------------|----------------------|
|-----------------|----------------------|


  A       D     E           D             A       D     E
  E E E E E E E E   +E  E E E +E  E E E   E E E E E E E E
|---------2-----4-|-(4)-----2-(2)-------|---------2-----4-|
|-2-------3-3---5-|-(5)-5---3-(3)-3-----|-2-------3-3---5-|
|---2---------2---|-------4---------2---|---2---------2---|
|-----2-----------|-------------------0-|-----2-----------|
|-------0---------|---------------------|-------0---------|
|-----------------|---------------------|-----------------|


          D             A       D     E           D
  +E  E E E +E  E E E   E E E E E E E E   +E  E E E +E  E E E
|-(4)-----2-(2)-------|---------2-----4-|-(4)-----2-(2)-------*|
|-(5)-5---3-(3)-3-----|-2-------3-3---5-|-(5)-5---3-(3)-3-----*|
|-------4---------2---|---2---------2---|-------4---------2---*|
|-------------------0-|-----2-----------|-------------------0-*|
|---------------------|-------0---------|---------------------*|
|---------------------|-----------------|---------------------*|            
Submit corrections


        Havana Daydreamin  lessons Hard to play? Try these video lessons and learn fast Havana Daydreamin  lessons
        
↑ Back to top | Tablatures and chords for acoustic guitar and electric guitar, ukulele, drums are parodies/interpretations of the original songs. You may use it for private study, scholarship, research or language learning purposes only