» » »

Jimmy Buffett - Brown Eyed Girl For 2 Guitars Tabs

Artists:  A B C D E F G H I J K L M N O P Q R S T U V W X Y Z # 

Brown Eyed Girl For 2 Guitars Tabs

(ver. 2) Click to play this song!
Jimmy Buffett
 Rating:
4/5 (4 votes)

 Brown Eyed Girl For 2 Guitars lessons Tabs too difficult? Try these video lessons and learn fast
 
                Brown Eyed Girl


 
For 2 Guitars
Both Standard Tuning

 Intro

               N.C.(G)             (C)                   (G)
 4/4
  W            W                    W                    W
  Gtr I
  W            E  E E  E E  E Q     E  E E  E E  E  Q    E  E E  E E  E Q
|----------||--7--8---10----8-7--|-12-13---15---13-12--|-7--8---10----8-7--|
|----------||o-8-10---12---10-8--|-13-15---17---15-13--|-8-10---12---10-8--|
|----------||--------------------|---------------------|-------------------|
|----------||--------------------|---------------------|-------------------|
|----------||o-------------------|---------------------|-------------------|
|----------||--------------------|---------------------|-------------------|


                     1st Verse
  (D)                 G
                      Gtr II
  W                   Q   E E +E  E Q
                      |   | |  |  | |
                      /   / /  /  / /

                      Gtr I
  Q.   E +E  E Q      Q.    E +E  E E E
|-5------------5---||-------3-(3)-------|
|------7-(7)-8----o||-3-----------3---x-|
|-7----------------||-------------------|
|------------------||-------------------|
|-----------------o||-------------------|
|------------------||-------------------|


  C                  G                  D
  Q   E E +E  E Q    Q   E E +E  E Q      Q    E E +E  E Q
  |   | |  |  | |    |   | |  |  | |      |    | |  |  | |
  /   / /  /  / /    /   / /  /  / /      /    / /  /  / /

  Q.    E +E  E Q    E E E E +E  E Q      E  Q   E +E  E Q
|-------3-(3)-0----|---3---------3----|-----10---8-(8)-7-5--|
|-1----------------|-------3-(3)------|---------------------|
|------------------|-----4---------4--|----------9-(9)-7-5--|
|---------------2--|-5----------------|-/11-----------------|
|------------------|------------------|---------------------|
|------------------|------------------|---------------------|


  G                 C                 G                  D7
  Q  E E +E  E Q    Q  E E +E  E Q    Q   E E +E  E Q    Q     E E +E  E Q
  |  | |  |  | |    |  | |  |  | |    |   | |  |  | |    |     | |  |  | |
  /  / /  /  / /    /  / /  /  / /    /   / /  /  / /    /     / /  /  / /

  Q  E E +E  E q    Q  E E +E  E q    E E E E +E  E q    E  E  E E +E  E q
|-3----------3----|-0----3-(3)-0----|------------------|-2-------0-(0)-2----|
|------3-(3)------|-----------------|-3-3---------3----|---(1)--------------|
|-4------------4--|--------------0--|-------4-(4)------|-------2---------2--|
|----5------------|----2------------|-----5---------5--|--------------------|
|-----------------|-----------------|------------------|--------------------|
|-----------------|-----------------|------------------|--------------------|


  G                  C                  G                  D
  Q  E   E +E E Q    Q   E E +E  E Q    Q  E   E +E E Q    Q   E E +E  E Q
  |  |   |  | | |    |   | |  |  | |    |  |   |  | | |    |   | |  |  | |
  /  /   /  / / /    /   / /  /  / /    /  /   /  / / /    /   / /  /  / /

  Q  E a E  E E Q    Q.    E +E  E q    Q  E a E  E E Q    Q.    E +E  E Q
|-3--5-5s7----5-3--|-8-----------8----|-3--5-5s7----5-3--|-2-----------2------|
|------------------|-------8-(8)------|------------------|-------3-(3)---3----|
|-4--5-5s7----5-4--|-9-------------9--|-4--5-5s7----5-4--|-2------------------|
|------------------|------------------|------------------|--------------------|
|------------------|------------------|------------------|--------------------|
|------------------|------------------|------------------|--------------------|


  G                 C                G                  D7
  Q  E E +E  E Q    Q  E E +E E Q     Q  E E +E  E Q    Q   E E +E  E Q
  |  | |  |  | |    |  | |  | | |     |  | |  |  | |    |   | |  |  | |
  /  / /  /  / /    /  / /  / / /     /  / /  /  / /    /   / /  /  / /

  Q  E E +E  E q    Q  E E  E E q     Q  E E +E  E Q    E E E E +E  E Q
|------3-(3)------|---------0------|------------------|-5-----0-(0)------|
|-3----------3----|-1---------1----|-----3-------3----|---3---3-(3)-3----|
|----4---------4--|------0------0--|-/4----4-(4)------|-----5-5-(5)---5--|
|-5---------------|----2-----------|------------------|-------4-(4)------|
|-----------------|----------------|------------------|------------------|
|-----------------|----------------|------------------|------------------|


  C                  D7               G                 Em
  Q  E E +E  E  Q    Q  E E +E E Q    Q  E E +E E Q      Q    E E +E  E Q
  |  | |  |  |  |    |  | |  | | |    |  | |  | | |      |    | |  |  | |
  /  / /  /  /  /    /  / /  / / /    /  / /  / / /      /    / /  /  / /

  Q  E E +E  Q.      Q  E E  H        Q  Q    E Q   E   +E  Q   E +E  E q
|------0-(0)-------|-2----2---------|-3--5----3-2---0-|-(0)----------------|
|-1----------1-----|----------------|----0------------|-----0---------0----|
|------------------|----2-----------|-----------------|---------0-(0)---0--|
|----2-------------|----------------|-----------------|--------------------|
|------------------|----------------|-----------------|--------------------|
|------------------|----------------|-----------------|--------------------|


  C                  D7                  G                 D
  Q  E E +E  E Q     Q   E  E +E  E Q    Q  E E +E  E Q      Q    E E +E E Q
  |  | |  |  | |     |   |  |  |  | |    |  | |  |  | |      |    | |  | | |
  /  / /  /  / /     /   /  /  /  / /    /  / /  /  / /      /    / /  / / /

  Q  E E +E  Q   E   Q   E  E +E  E q    Q  E E +E  E q      E  E E E  E E E E
|------0-(0)-3-----|-2------0-(0)-2----|-3----------3----|-/10-10---8----7-5---|
|-1--3-------------|----(1)------------|------3-(3)------|---------------------|
|------------------|-----2----------2--|----4---------4--|-/11-11---9----7-5---|
|------------------|-------------------|-----------------|---------------------|
|------------------|-------------------|-----------------|---------------------|
|------------------|-------------------|-----------------|---------------------|


 2nd Verse
  G                 C                 G                 D7
  Q  E E +E  E Q    Q  E E +E  E Q    Q  E E +E E Q      Q    E   E +E  E Q
  |  | |  |  | |    |  | |  |  | |    |  | |  | | |      |    |   |  |  | |
  /  / /  /  / /    /  / /  /  / /    /  / /  / / /      /    /   /  /  / /

  Q  E E +E  E q    Q  E E +E  E q    Q  Q    E E E E   +E  E E a E +E  E Q
|-3----3-(3)-3----|-----------------|----4----5-3---5-|-(5)-----5s7-(7)-5-3--|
|-----------------|------1-(1)------|-----------------|-------3--------------|
|----4---------4--|------------0----|-4---------------|-----5---5s7-(7)-5-4--|
|-----------------|----2---------2--|-----------------|----------------------|
|-----------------|-----------------|-----------------|----------------------|
|-----------------|-----------------|-----------------|----------------------|


  G                 C
  Q  E E +E  E Q    Q  E   E  +E   E Q
  |  | |  |  | |    |  |   |   |   | |
  /  / /  /  / /    /  /   /   /   / /

  Q  E E +E  E Q    Q  E   E  +E   E Q
|------3-(3)------|-8----/12-(12)-11-8--|
|-3----------3----|---------------------|
|----4---------4--|-9----/12-(12)-11-9--|
|-5---------------|---------------------|
|-----------------|---------------------|
|-----------------|---------------------|


  G                  D7
  Q   E E +E  E Q     Q     E  E  +E   E  Q
  |   | |  |  | |     |     |  |   |   |  |
  /   / /  /  / /     /     /  /   /   /  /

  Q.    E +E  E Q     E  E  E  E  +E   E  q
|-3-----------3----|----------10-(10)-12-10--|
|-------3-(3)------|----10-------------------|
|-4-------------4--|-------11----------------|
|------------------|-10----------------------|
|------------------|-------------------------|
|------------------|----------------
            
Submit corrections


        Brown Eyed Girl For 2 Guitars lessons Hard to play? Try these video lessons and learn fast Brown Eyed Girl For 2 Guitars lessons
        
↑ Back to top | Tablatures and chords for acoustic guitar and electric guitar, ukulele, drums are parodies/interpretations of the original songs. You may use it for private study, scholarship, research or language learning purposes only