Home » J » Jimi Hendrix »

Jimi Hendrix - Spanish Castle Of Magic Tabs

Artists:  A B C D E F G H I J K L M N O P Q R S T U V W X Y Z # 

Spanish Castle Of Magic Tabs

(ver. 1) Click to play this song!
Jimi Hendrix
 Rating:
4/5 (4 votes)
                this is my first ever tab so go easy! Email corrections to me please.

----9-9----9-9----9-9----9----------------------------------------------------
-11-9-9-11-9-9-11-9-9-11-9----------------------------------------------------
-11-----11-----11-----11---12\------------------------------------------------
---------------------------12\------------------------------------------------
  intro                                                                       

------------8-----------8-----------8-----------8-----------------------------
------------8-----------8-----------8-----------8-----------------------------
--6-----------6-----------6-----------6---------------------------------------
----8-6-8-8-----8-6-8-8-----8-6-8-8-----8-6-8-8-------------------------------
 bit after intro                                                              

-8-88-8--7-77-7--6-66-6--5-55-5-----10-1010-10--8-88-8-7-77-7-6-66-6-5-55-5---
-8-88-8--7-77-7--6-66-6--5-55-5-----10-1010-10--8-88-8-7-77-7-6-66-6-5-55-5---
-6-66-6--5-55-7--4-44-4--3-33-3-----8--8-8--8---6-66-6-5-55-5-4-44-4-3-33-3---
 verse - it's very far away....                                               

-10-1010-10-------------------------------------------------------------------
-10-1010-10-------------------------------------------------------------------
-8--8-8--8--------------------------------------------------------------------
                                                                              

-----------8------------------------------------------------------------------
-----------8------------------------------------------------------------------
-6----------------------------------------------------------------------------
---8-6-8-8--------------------------------------------------------------------
 play bit after intro where jimi goes hey! 

thats all i can manage! i need     
help with the rest coz im only a beginner. just repeat the stuff above for the 
rest of the song
            
Submit corrections

↑ Back to top | Tablatures and chords for acoustic guitar and electric guitar, ukulele, drums are parodies/interpretations of the original songs. You may use it for private study, scholarship, research or language learning purposes only