» » »

Janes Addiction - Curiosity Kills Bass

Artists:  A B C D E F G H I J K L M N O P Q R S T U V W X Y Z # 

Curiosity Kills Bass

(ver. 1) Click to play this song!
Janes Addiction
 Rating:
4/5 (4 votes)


 Curiosity Kills lessons Tabs too difficult? Try these video lessons and learn fast
 
                Band: Jane's Addiction
Tuning: Standard


Intro and Verse:

G|----------------------------------------------------------------|
D|----------------------------------------------------------------|
A|----------------------------44443333333333333333----------------|
E|2444444444444444555555222222--------------------0000000022222222| x6

Chorus:

G|----------------------------------------------------------------|
D|------------------------------------------------9999999999999999|
A|4444444444444444----------------7777777777777777----------------|
E|----------------7777777777777777--------------------------------| x3

G|----------------------------------------------------------------|
D|----------------------------------------------------------------|
A|----------------------------------------------------------------|
E|9-9~------------------------------------------------------------|

Verse:

G|--------|----------------------------------------------------------------|
D|--------|----------------------------------------------------------------|
A|--------|----------------------------44443333333333333333----------------|
E|-----16\|4444444444444444555555222222--------------------0000000022222222|

G|----------------------------------------------------------------|
D|----------------------------------------------------------------|
A|----------------------------44443333333333333333----------------|
E|2444444444444444555555222222--------------------0000000022222222|

Chorus:

G|----------------------------------------------------------------|
D|------------------------------------------------9999999999999999|
A|4444444444444444----------------7777777777777777----------------|
E|----------------7777777777777777--------------------------------| x3



G|----11-9~~~~~~~~~~--------------------------------|
D|--------------------------------------------------|
A|------------------7----7-7----7-9-----------------|
E|9~~~~~~~~~~~~~~~~~----------------7-----7-7-------| x3

G|----11-9~~~~~~~~~~--------------------------------|
D|--------------------------------------------------|
A|------------------7----7-7----7-9-----------------|
E|9~~~~~~~~~~~~~~~~~----------------7-----7-7-4-7-4-|

G|----11-9~~~~~~~~~~--------------------------------|
D|--------------------------------------------------|
A|------------------7-7-7-7-7-7-7-9-----------------|
E|9~~~~~~~~~~~~~~~~~----------------7-7-7-7-7-7-7-7-|

Guitar Solo and Chorus: (play till the end)

G|----------------------------------------------------------------|
D|------------------------------------------------9999999999999999|
A|4444444444444444----------------7777777777777777----------------|
E|----------------7777777777777777--------------------------------|

G|----------------------------------------------------------------|
D|----------------------------------------------------------------|
A|----------------------------------------------------------------|
E|9-9~------------------------------------------------------------|

/  slide up
\  slide down
h  hammer-on
p  pull-off
~  let ring
            
Submit corrections



        Curiosity Kills lessons Hard to play? Try these video lessons and learn fast Curiosity Kills lessons
        
↑ Back to top | Tablatures and chords for acoustic guitar and electric guitar, ukulele, drums are parodies/interpretations of the original songs. You may use it for private study, scholarship, research or language learning purposes only