» » »

Janes Addiction - Been Caught Stealing Bass

Artists:  A B C D E F G H I J K L M N O P Q R S T U V W X Y Z # 

Been Caught Stealing Bass

(ver. 3) Click to play this song!
Janes Addiction
 Rating:
4/5 (4 votes)
                Been Caught Stealing
Jane's Addiction
Ritual de lo Habitual

NOTATION:

 ^ ==> Hold Note
 x ==> Palm Mute
 / ==> Slide
 & ==> Silence


	* INTRO

G:|---------|
D:|---------|
A:|---------|
E:|-0^---3x-|


	*MAIN RIFF

G:|-----------------------------------|
D:|-----------------------------------|:
A:|-----------------------------------|:
E:|-0-3--0-0-3--0-0-3--0-0-3--x-x-x-x-|

This is played in a very scratchy way, you MUST catch the idea, otherwise
it won't sound very good


	*CHORUS ("walk right...")

G:|-------|----|------------|-----------------------------------|
D:|-------|----|------------|-----------------------------------|
A:|-3-3^/-|-3^-|-1--3--1----|-----------------------------------|
E:|-------|----|----------1-|-0-3--0-0-3--0-0-3--0-0-3--x-x-x-x-|

G:|--------|------------|-------|
D:|--------|-5^--55-----|-------| =>Then back to 
A:|-3^-3-3-|--------5-6-|-------| => MAIN RIFF
E:|--------|------------|-6^--5-|


	*LALALA ("larara-tatara-ta-ta-ta")

G:|-----------------|----------------|-------|-&-|
D:|-----------------|----------------|-------|-&-|: Play
A:|-3-3-3-3-3-3-3-3-|-3-3-3-3-1^--2^-|-1^-2^-|-&-|: 2 times
E:|-----------------|----------------|-------|-&-|

--------------------------------------------------------------

AMOR Y PAZ
            
Submit corrections

↑ Back to top | Tablatures and chords for acoustic guitar and electric guitar, ukulele, drums are parodies/interpretations of the original songs. You may use it for private study, scholarship, research or language learning purposes only