» » »

Jam - A Town Called Malice Bass

Artists:  A B C D E F G H I J K L M N O P Q R S T U V W X Y Z # 

A Town Called Malice Bass

(ver. 3) Click to play this song!
Jam
 Rating:
4/5 (4 votes)


 A Town Called Malice lessons Tabs too difficult? Try these video lessons and learn fast
 
                 ---------------------------------------
| THE JAM - TOWN CALLED MALICE by Lallo |
 ---------------------------------------


- Intro/Chorus:
                        
G|-----------------|-------------------|
D|*----------------|------------------*|
A|*--5--5--5-------|--5--5--5---------*|
E|------------7h5--|-----------7h5p7---|


- Verse:

(Better stop dreaming of the quiet life...)
G|----------------|--------------------|----------------|-------------------|
D|----------------|------9-9p10h9------|----------------|------10h9-7-7-9/--|
A|------9p10h9\7--|---------------10\--|------9p10h9\7--|-------------------|
E|-2--------------|-0------------------|-2--------------|-0-----------------|
                                                     
(And stop apologising for the things you've never done...)                              
G|-------------------------------------|------------------------------------|
D|-------------------------------------|------------------------------------|
A|-------------------------------------|-------------------------------4-5--|
E|-3-3-3--3-3-3-0p3---2-2-2--2-2-2-0p2-|-5-5-5--5-5-5p0---5-5-5--5-5-7------|
                                                                   

- Bridge:

(A whole street's belief in Sunday's roast beef...)                          
G|-------------------------|------------------------------------|
D|-------------------------|------------------------------------|
A|--4---4\2---2/4---4\2/---|-------------------------------4-5--|
E|-------------------------|-5-5-5--5-5-5p0---5-5-5--5-5-7------|





 ----------------
|Tablature Legend|
 ----------------
 h   - hammer-on
 p   - pull-off
 /\  - slide into or out of (from/to "nowhere")
            
Submit corrections



        A Town Called Malice lessons Hard to play? Try these video lessons and learn fast A Town Called Malice lessons
        
↑ Back to top | Tablatures and chords for acoustic guitar and electric guitar, ukulele, drums are parodies/interpretations of the original songs. You may use it for private study, scholarship, research or language learning purposes only