» » »

Jam - Eton Rifles Tabs

Artists:  A B C D E F G H I J K L M N O P Q R S T U V W X Y Z # 

Eton Rifles Tabs

(ver. 2) Click to play this song!
Jam
 Rating:
4/5 (6 votes)


 Eton Rifles lessons Tabs too difficult? Try these video lessons and learn fast
 
                I love this song, probably my favourite song by The Jam. This tab should be straight 
and very accurate, the beginning is gona be a little off though, just listen to the track 
the timing.

Key:
h - hammer on
p - pull off
p.m - palm mute
/ - slide up
\ - slide down
[]- natural harmonic
x - muted strings

Intro

E-0--0--0----------0--[7]--0--0-----------|
B-1--0--0----------0--[7]--1--0--1--3--3--|
G-2--2--0--2-------0--[7]--2--2--2--4--4--|
D-2--2--0--2----------[7]--2--2--3--5--5--|
A-0--0--0--0----------[7]--0--0--3--5--5--|
E-------------17\-----[7]-----------------|

Verse

E-x-x-x-x-8--8--8--x-x-x-x-10-10-10-|
B-x-x-x-x-8--8--8--x-x-x-x-10-10-10-|
G-x-x-x-x-9--9--9--x-x-x-x-10-10-10-| x4
D-x-x-x-x-10-10-10-x-x-x-x-12-12-12-|
A-----------------------------------|
E-----------------------------------|

E---------|
B-1-x-3-3-|
G-2-x-4-4-|
D-3-x-5-5-|
A-3-x-5-5-|
E---------|

E-x-x-x-x-8--8--8--x-x-x-x-10-10-10-|
B-x-x-x-x-8--8--8--x-x-x-x-10-10-10-|
G-x-x-x-x-9--9--9--x-x-x-x-10-10-10-| x4
D-x-x-x-x-10-10-10-x-x-x-x-12-12-12-|
A-----------------------------------|
E-----------------------------------|

E---------|
B-1-x-3-3-|
G-2-x-4-4-|
D-3-x-5-5-|
A-3-x-5-5-|
E---------|

Chorus

E----------0--0--0-------------|
B-1-x-3-3--1--1--1-------------|
G-2-x-4-4--0--0--2-------------| x 2
D-3-x-5-5--2--0--2--------5--2-|
A-3-x-5-5--3--2--0--0--3-------|
E------------------------------|

E--------------|
B---5------5---|
G--5-5----5-5--|
D-5---5--5---5-|
A--------------|
E--------------|

Verse

E-x-x-x-x-8--8--8--x-x-x-x-10-10-10-|
B-x-x-x-x-8--8--8--x-x-x-x-10-10-10-|
G-x-x-x-x-9--9--9--x-x-x-x-10-10-10-| x4
D-x-x-x-x-10-10-10-x-x-x-x-12-12-12-|
A-----------------------------------|
E-----------------------------------|

E---------|
B-1-x-3-3-|
G-2-x-4-4-|
D-3-x-5-5-|
A-3-x-5-5-|
E---------|

Chorus

E----------0--0--0-------------|
B-1-x-3-3--1--1--1-------------|
G-2-x-4-4--0--0--2-------------| x 2
D-3-x-5-5--2--0--2--------5--2-|
A-3-x-5-5--3--2--0--0--3-------|
E------------------------------|

E--------------|
B---5------5---|
G--5-5----5-5--|
D-5---5--5---5-|
A--------------|
E--------------|

Bridge

E-0-----0---------------|
B-0--1--0--1--3-3-3-3-3-|
G-0--2--0--2--4-4-4-4-4-|
D-2--3--2--3--5-5-5-5-5-|
A-2--3--2--3--5-5-5-5-5-|
E-0-----0---------------|

Solo

with slight palm mute on the G and D strings

E--------8-------------------10-------------|
B------8---8h10p8---------10----10h12p10----|
G----9------------9----10----------------10-| x 2
D-10----------------12----------------------|
A-------------------------------------------|
E-------------------------------------------|

E--------8--------------10-------------|
B------8---8---------10----10h12p10----|
G----9-------9----10----------------10-| x 2
D-10-----------12----------------------|
A--------------------------------------|
E--------------------------------------|

E-----3-0-----3-0---------------------|
B---1-------1---------5---------5-----|
G-2-------2---------5---5-----5---5---|
D-----------------5-------5-5-------5-|
A-------------------------------------|
E-------------------------------------|

Bridge

E-0-----0---------------|
B-0--1--0--1--3-3-3-3-3-|
G-0--2--0--2--4-4-4-4-4-|
D-2--3--2--3--5-5-5-5-5-|
A-2--3--2--3--5-5-5-5-5-|
E-0-----0---------------|

Verse

E-x-x-x-x-8--8--8--x-x-x-x-10-10-10-|
B-x-x-x-x-8--8--8--x-x-x-x-10-10-10-|
G-x-x-x-x-9--9--9--x-x-x-x-10-10-10-|
D-x-x-x-x-10-10-10-x-x-x-x-12-12-12-|
A-----------------------------------|
E-----------------------------------|

E---------|
B-1-x-3-3-|
G-2-x-4-4-|
D-3-x-5-5-|
A-3-x-5-5-|
E---------|

Chorus

E----------0--0--0-------------|
B-1-x-3-3--1--1--1-------------|
G-2-x-4-4--0--0--2-------------| x4
D-3-x-5-5--2--0--2--------5--2-|
A-3-x-5-5--3--2--0--0--3-------|
E------------------------------|

E--------------|
B---5------5---|
G--5-5----5-5--|
D-5---5--5---5-|
A--------------|
E--------------|

Outro

E----0-0-0-----0-----0--0--0------0--0--|
B----0-0-1-----0-----0--1--0------1--0--|
G-2--2-2-2-----2--2--2--2--2------2--2--|
D-2--2-2-2-----2--2--2--2--2------2--2--|
A-0--0-0-0-----0--0--0--0--0------0--0--|
E-----------x\----------------15\-------|

p.m------------------|
E--------------------|
B--------------------|
G--------------------| x4
D---------5-5-2-2----|
A-0-0-2-2------------|

End on Am

There ya go, im sorry that the intro and outro are a little off, but it follows the 
progression pretty much as i put it, my guitar teacher helped me learn it, i have set it out 
E-----------------|
            
Submit corrections



        Eton Rifles lessons Hard to play? Try these video lessons and learn fast Eton Rifles lessons
        
↑ Back to top | Tablatures and chords for acoustic guitar and electric guitar, ukulele, drums are parodies/interpretations of the original songs. You may use it for private study, scholarship, research or language learning purposes only