» » »

Jam - A Bomb In Wardour Street Bass

Artists:  A B C D E F G H I J K L M N O P Q R S T U V W X Y Z # 

A Bomb In Wardour Street Bass

(ver. 1) Click to play this song!
Jam
 Rating:
3.8/5 (5 votes)


 A Bomb In Wardour Street lessons Tabs too difficult? Try these video lessons and learn fast
 
                THE JAM - A BOMB IN WARDOUR STREET

(Snap! version)


G-----------------|
D-----------------|
A------77---------|
E--55------55-----| X5


G---------------------|
D---------------------|
A------77-------------|
E--55------55----16/--| x1


G----------------79-----|
D--------789---9---9/---|
A-----9-----7-----------|
E--7--------------------| x1


G-----------------|
D-----------------|
A------77---------|
E--55------55-----| x2


G---------------------|
D---------------------|
A--777777777777777----|
E---------------------| x1


G------------------------------------|
D------------------------------------|
A------677-------------677-----------|
E--455-----455-455-455-----455-455---| x2


G----------------------------------------|
D----------------------------------------|
A------677-------------677---------------|
E--455-----455-455-455-----455-455-\12/--| x1


G----------------79-----|
D-------7--9---9---9/---|
A-----9-----7-----------|
E--7--------------------| x1


G-------------------------------------|
D--------------------------------567--|
A------677-------------677---4567-----|
E---55-----455-455-455-----45---------| x1


G---------------------|
D---------------------|
A--777777777777777----|
E---------------------| x1


G------------------------------------|
D------------------------------------|
A------677-------------677-----------|
E--455-----455-455-455-----455-455---| x1


G----------------------------------------|
D----------------------------------------|
A------677-------------677---------------|
E--455-----455-455-455-----455-455-\12/--| x1


G----------------79-----|
D-------7--9---9---9/---|
A-----9-----7-----------|
E--7--------------------| x1


G-------------------------------------|
D--------------------------------567--|
A------677-------------677---4567-----|
E---55-----455-455-455-----45---------| x1


G---------------------|
D---------------------|
A--777777777777777----|
E---------------------| x1


G------------------------------------|
D------------------------------------|
A------677-------------677-----------|
E--455-----455-455-455-----455-455---| x2


G----------------------------------------|
D----------------------------------------|
A------677-------------677---------------|
E--455-----455-455-455-----455-455-\12/--| x1


G----------------79-----|
D-------7--9---9---9/---|
A-----9-----7-----------|
E--7--------------------| x1


G-------------------------------------|
D--------------------------------567--|
A------677-------------677---4567-----|
E---55-----455-455-455-----45---------| x1


G---------------------|
D---------------------|
A--777777777777777----|
E---------------------| x1


G-----------------|
D-----------------|
A------77---------|
E--55------55-----| X5


G---------------------------------------------------|
D---------------------------------------------------|
A--7-7-8-8-9-9-10-10-11-11-12-12>>>-----------------|    let ring.
E---------------------------------------------------| x1
            
Submit corrections



        A Bomb In Wardour Street lessons Hard to play? Try these video lessons and learn fast A Bomb In Wardour Street lessons
        
↑ Back to top | Tablatures and chords for acoustic guitar and electric guitar, ukulele, drums are parodies/interpretations of the original songs. You may use it for private study, scholarship, research or language learning purposes only