» » »

Jal - Payal Teaser Tabs

Artists:  A B C D E F G H I J K L M N O P Q R S T U V W X Y Z # 

Payal Teaser Tabs

(ver. 1) Click to play this song!
Jal
 Rating:
3.6/5 (7 votes)
                [Intro]

e|--------------------------------------------|
B|--------------------------------------------|
G|---------------------------------0----------|
D|-10-12-14---14-12-10-10-12-12-10------------|
A|--------------------------------------------|
E|--------------------------------------------|

[Chords]


C
Oooooooo

C
Oooooooo



C                       Am
Kaanch ke thay saare waade

C                       Am
Rishte ya kahche the dhaage

C                       Am
Dil kaay taaron ko cheer kar

C
Tum kahaan chal diye

C                 Am
Tum kahaan chal diye

C                       C
Tum kahaan Aaaa chal diyee



C                       Am
Sirhaane mere tu aa kaay

C                       Am
Baahon me mujhko lita kaay

C                     Am
Khaab suhaane dikha kay

C
Tum kahaan chal diye

C                 Am
Tum kahaan chal diye

C                  C
Tum kahaan chal diye


[Solo]


e|----------------------------------------------------------------------------------------|
B|----------------------------------------------------10------------------10--------------|
G|--------9-9-11-9----------9-9-11-9-------9-11-12-12----12----9-11-12-12----12-----------|
D|--10-12------------10-12----------------------------------------------------------------|
A|----------------------------------------------------------------------------------------|
E|----------------------------------------------------------------------------------------|


e|---------------------------------------------------8-8-10------------10--10--10-8-8-8*---|
B|-----10-12-12-12-12-------10-12-12-12-12-----10-12-------------10-12-------12-----------|
G|--12-------------------12---------------------------------------------------------------|
D|----------------------------------------------------------------------------------------|
A|----------------------------------------------------------------------------------------|
E|----------------------------------------------------------------------------------------|

[Smooth transition to chords after arpigiating * marked end node


C                  Am
Aab is pal mein jeena

C                       C                    
Tum bin mushkil hai ... Aaaa...

C                        Am
Mausam yeh phir ab aaye naa

C
Jiss mein hum thay...


[Silence]

C
Jiss mein hum thay

C            C
Aaaa...
(Fade out)


The notes are for the raw song, which is yet to be officially released.
Easy... Damn easy and comfy to play. Yet the song has damn hidden taste of the typical jal style.
            
Submit corrections

↑ Back to top | Tablatures and chords for acoustic guitar and electric guitar, ukulele, drums are parodies/interpretations of the original songs. You may use it for private study, scholarship, research or language learning purposes only