» » »

Jackson Browne - Somebody's Baby Bass

Artists:  A B C D E F G H I J K L M N O P Q R S T U V W X Y Z # 

Somebody's Baby Bass

(ver. 1) Click to play this song!
Jackson Browne
 Rating:
4/5 (4 votes)


 Somebody's Baby lessons Tabs too difficult? Try these video lessons and learn fast
 
                -----------------------------------------------------------------------------
                      SOMEBODY'S BABY - Jackson Browne
-----------------------------------------------------------------------------


Tuning: E A D G

INTRO
|----------------|----------------|----------------|---------------|
|----------------|----------------|----------------|---------------|
|5-5-5-5-5-5-5-0-|2-2-2-2-2-2-2-0-|----------------|-----------55--|
|----------------|----------------|3-3-3-3-3-3-3-4-|5-5-5-5-5h7--7-|

|----------------|----------------|----------------|----------------|
|----------------|----------------|----------------|----------------|
|5-5-5-5-5-5-0-1-|2-2-2-2-2-2-2-0-|----------------|----------------|
|----------------|----------------|3-3-3-3-3-3-3-4-|5-5-5-5-5-5-5-4-|

VERSE 1
|----------------|----------------|----------------|----------------|
|----------------|----------------|----------------|----------------|
|----------------|------------0-1-|2-2-2---2-2---2-|4-4-0-5---5-2-0-|
|3-3-3---3-3-3-4-|5-5-5---5-5-----|----------------|----------------|

|----------------|----------------|----------------|----------------|
|----------------|----------------|----------------|----------------|
|----------------|----------------|----------------|----------------|
|3-3-3---3-3---4-|5-5-5---5-5---2-|3-3-3---3-3---4-|5-5-5---5-5-1-2-|

|----------------|----------------|----------------|----------------|
|----------------|----------------|----------------|----------------|
|----------------|------------0-1-|2-2-2---2-2---2-|4-4-0-5---5-2-0-|
|3-3-3---3-3-3-4-|5-5-5---5-5-----|----------------|----------------|

|----------------|----------------|----------------|----------------|
|----------------|----------------|----------------|----------------|
|----------------|----------------|----------------|-------------4--|
|3-3-3---3-3---4-|5-5-5---5-5-0-2-|3-3-3---3-3---4-|5-5-5-5-5-5h7-5-|

|----------------|----------------|
|----------------|----------------|
|----------------|-------------5--|
|3-3-3---3-3---4-|5-5-5-5-5-5h7-7-|

CHORUS
|----------------|----------------|----------------|----------------|
|----------------|----------------|----------------|----------------|
|5-5-5-5-5-5-0-1-|2-2-2-2-2-2-2-0-|----------------|-------------5--|
|----------------|----------------|3-3-3-3-3-3-3-4-|5-5-5-5-5-5h7-7-|

|----------------|----------------|----------------|----------------|
|----------------|----------------|----------------|----------------|
|5-5-5-5-5-5-0-1-|2-2-2-2-2-2-2-0-|----------------|----------------|
|----------------|----------------|3-3-3-3-3-3-3-4-|5-5-5-5-5-5-5-2-|

VERSE 2
|----------------|----------------|----------------|----------------|
|----------------|----------------|----------------|----------------|
|----------------|------------0-1-|2-2-2-2-2-2-2-3-|4-4-0-5---5-----|
|3-3-3-3-3-3-3-4-|5-5-5-5-5-5-----|----------------|------------0-2-|

|----------------|----------------|----------s---s-|----------------|
|----------------|----------------|----------5---7-|----------------|
|----------------|----------------|----------------|----------------|
|3-3-3---3-3-3-4-|5-5-5-5-5-5-5-0-|2-0-3-0-3---5---|5-5-5-5-5-5-0-2-|

|----------------|----------------|----------------|----------------|
|----------------|----------------|----------------|----------------|
|----------------|------------0-1-|2-2-2-2-2-2-2-2-|4-4-0-5---5-2-0-|
|3-3-3-3-3-3-3-4-|5-5-5-5-5-5-----|----------------|----------------|

|----------------|----------------|----------------|----------------|
|----------------|----------------|----------------|----------------|
|----------------|----------------|----------------|------------4---|
|3-3-3---3-3---4-|5-5-5---5-5---2-|3-3-3---3-3---4-|5-5-5---5-7---5-|

|----------------|----------------|
|----------------|----------------|
|----------------|---------55-----|
|3-3-3---3-3-3-4-|5-5-5-5h7---7-5-|

CHORUS 2
|----------------|----------------|----------------|----------------|
|----------------|----------------|----------------|----------------|
|5-5-5-5-5-5-0-1-|2-2-2-2-2-2-2-0-|----------------|-----------55---|
|----------------|----------------|3-3-3-3-3-3-3-4-|5-5-5-5-5h7---7-|

|----------------|----------------|----------------|----------------|
|-----------7----|----------------|----------------|----------------|
|5-5-5-5-7/9-9-7-|----------------|----------------|----------------|
|----------------|7-7-7-7-7-7-7-5-|3-3-3-3-3-3-3-4-|5-5-5-5-5-5-5-4-|

BRIDGE
|----------------|----------------|----------------|------------------|
|----------------|----------------|----------------|------------------|
|----------------|------------0-1-|2-2-2-2-2-2-0-2-|2-2-2-2h4h5-4-2-0-|
|3-3-3---3-3-3-4-|5-5-5-5-5-5-----|----------------|------------------|

|----------------|----------------|----------------|----------------|
|----------------|----------------|----------------|----------------|
|----------------|--------------5-|2-2-2-2-2-2-0-2-|2-2-2-2-2-2-2-0-|
|3-3-3-3-3-3-3-4-|5-5-5-5-5-5-5---|----------------|----------------|

|----------------|----------------|
|----------------|----------------|
|----------------|----------------|
|3-3-3-3-3-3-3-4-|5-5-5-5-5-7-5-0-|

SOLO
|----------------|----------------|----------------|----------------|
|----------------|----------------|----------------|----------------|
|5-5-5-5-5-5-5-4-|2-2-2-2-2-2-2-0-|----------------|-----------55---|
|----------------|----------------|3-3-3-3-3-3-3-4-|5-5-5-5-5h7---7-|

|----------2-3-4-|----------2-3-4-|----------------|----------------|
|0-0-0-0-4-------|--------4-------|----------------|----------------|
|----------------|2-2-2-2---------|----------------|----------------|
|----------------|----------------|3-3-3-3-3-3-3-4-|5-5-5-5-5-7-5-4-|

|----------------|----------------|----------s---s-|----------------|
|----------------|----------------|----------5---7-|----------------|
|----------------|----------------|----------------|----------------|
|3-3-3---3-3-3-4-|5-5-5---5-5-5-4-|3-3-3---3---5---|5-5-5---5-5-5-2-|

|----------------|----------------|----------------|----------------|
|----------------|----------------|----------5-----|----------------|
|----------------|----------------|----------------|--------------4-|
|3-3-3---3-3-3-4-|5-5-5---5-5-5-7-|3---3---3---3-4-|5-5-5-5-5-7-5---|

OUTRO
|----------------|--------------2-|----------------|----------------|
|----------------|----------------|--------------5-|----------------|
|5-5-5-5-5-5-0-1-|2-2-2-2-2-2-0---|----------------|-----------55---|
|----------------|----------------|3-3-3-3-3-3-3---|5-5-5-5-5h7---7-|

|----------------|----------------|----------------|----------------|
|------------789-|----------9---7-|------------5---|----------------|
|5-5-5-5-7/9-----|----------------|----------------|-------------5--|
|----------------|7-7-7-7-7---5---|3-3-3-3-3-3---4-|5-5-5-5-5-5h7-7-|

|----------------|--4-------------|----------------|----------------|
|----------------|----------------|----------------|----------------|
|5-5-5-5-5-5-0-1-|2---2---2-2-2-0-|----------------|-------------5--|
|----------------|----------------|3-3-3---3-3-3-4-|5-5-5-5-5-5h7-7-|

|------------2-3-4-|----------2-3-4-|----------s---s-|----------------|
|0-0-0-0-2/4-------|--------4-------|----------5---7-|----------------|
|------------------|2-2-2-2---------|----------------|-------------5--|
|------------------|----------------|3-3-3-3-3---5---|5-5-5-5-5-5h7-7-|

|--------------s-|----------s---s-|--------------s-|----------------|
|--------------7-|----------9---7-|--------------5-|----------------|
|5-5-5-5-5-5-0---|----------------|----------------|-------------5--|
|----------------|7-7-7-7-7---5---|3-3-3-3-3-3-3---|5-5-5-5-5-5h7-7-|

                                s
|----------------|--------------2-|----------s-----|--s---s---s-----|
|----------------|----------------|----------5-----|--7---7---7-----|
|5-5-5-5-5-5-0-1-|2-2-2-2-2-2-0---|----------------|----------------|
|----------------|----------------|3-3-3-3-3---3-4-|5---5---5---5-4-|

                    s
|----------------|--4-------------|----------------|----------------|
|----------------|----------------|----------5---7-|----------------|
|5-5-5-5-5-0-1-2-|2---2-2-2-2-2-0-|----------------|------------2-4-|
|----------------|----------------|3-3-3-3-3---5---|5-5-5-5-5-5-----|

                            s   s
|----------------|----------4---2-|----------s-----|---------------|
|----------------|----------------|----------5-----|---------------|
|5-5-5-5-5-0-1-2-|2-2-2-2-2---0---|----------------|---------------|
|----------------|----------------|3-3-3-3-3---4-5-|5-5-5-5-fade---|
            
Submit corrections



        Somebody's Baby lessons Hard to play? Try these video lessons and learn fast Somebody's Baby lessons
        
↑ Back to top | Tablatures and chords for acoustic guitar and electric guitar, ukulele, drums are parodies/interpretations of the original songs. You may use it for private study, scholarship, research or language learning purposes only