» » »

Ivoryline - The Last Words Tabs

Artists:  A B C D E F G H I J K L M N O P Q R S T U V W X Y Z # 

The Last Words Tabs

(ver. 2) Click to play this song!
Ivoryline
 Rating:
4/5 (4 votes)


 The Last Words lessons Tabs too difficult? Try these video lessons and learn fast
 
                -------------------------------------------------------------------------------
-------------------------------------------------------------------------------

Tuning: Drop C# (C#, G#, C#, F#, A#, D#)

INTRO:
D#|-------------------------------------|---------------0~------0~---------|
A#|-------10~------10~------10~---------|-------6~-------------------------|
F#|---7~-------7~-------7~-------7~--7~-|---3~------3~------3~------3~--3~-|
C#|-------------------------------------|----------------------------------|
G#|-------------------------------------|----------------------------------|
C#|-8~--8~---8~--8~---8~--8~---8~--8~---|-5~--5~--5~--5~--5~--5~--5~--5~---|

D#|-------------------------------------|---------------0~------0~---------|
A#|-------10~------10~------10~---------|-------3~-------------------------|
F#|---7~-------7~-------7~-------7~--7~-|---2~-----2~-------2~------2~--2~-|
C#|-------------------------------------|----------------------------------|
G#|-------------------------------------|----------------------------------|
C#|-8~--8~---8~--8~---8~--8~---8~--8~---|-3~--3~--3~--3~--3~--3~--3~--3~---|

VERSE:
D#|-------------------------------------|---------------0~------0~---------|
A#|-------10~------10~------10~---------|-------6~-------------------------|
F#|---7~-------7~-------7~-------7~--7~-|---3~------3~------3~------3~--3~-|
C#|-------------------------------------|----------------------------------|
G#|-------------------------------------|----------------------------------|
C#|-8~--8~---8~--8~---8~--8~---8~--8~---|-5~--5~--5~--5~--5~--5~--5~--5~---|

D#|-------------------------------------|---------------0~------0~---------|
A#|-------10~------10~------10~---------|-------3~-------------------------|
F#|---7~-------7~-------7~-------7~--7~-|---2~-----2~-------2~------2~--2~-|
C#|-------------------------------------|----------------------------------|
G#|-------------------------------------|----------------------------------|
C#|-8~--8~---8~--8~---8~--8~---8~--8~---|-3~--3~--3~--3~--3~--3~--3~--3~---|

D#|-------------------------------------|---------------0~------0~---------|
A#|-------10~------10~------10~---------|-------6~-------------------------|
F#|---7~-------7~-------7~-------7~--7~-|---3~------3~------3~------3~--3~-|
C#|-------------------------------------|----------------------------------|
G#|-------------------------------------|----------------------------------|
C#|-8~--8~---8~--8~---8~--8~---8~--8~---|-5~--5~--5~--5~--5~--5~--5~--5~---|

D#|-------------------------------------|-----------------------------------------------|
A#|------10~-------10~------10~---------|----13~---11~---11~---10~---10~---10~---10~----|
F#|---7~-------7~-------7~-------7~--7~-|-----------------------------------------------|
C#|-------------------------------------|-----------------------------------------------|
G#|-------------------------------------|-----------------------------------------------|
C#|-8~--8~---8~--8~---8~--8~---8~--8~---|-12~---12~---12~---12~---12~---12~---12~---12~/|

PRE-CHORUS 2x: 
D#|-x--|    |-x--|   |-x--|   |-x--|    |-x--|   |-x--|
A#|-10-|    |-11-|   |-x--|   |-x--|    |-x--|   |-x--|
F#|-7--|    |-9--|   |-12-|   |-10-|    |-12-|   |-9--|
C#|-0--|    |-0--|   |-0--|   |-0--|    |-0--|   |-0--|
G#|-x--|    |-x--|   |-x--|   |-x--|    |-x--|   |-x--|
C#|-8--|16x |-10-|8x |-10-|8X |-8--|16x |-10-|8x |-10-|8x

CHORUS 2x:
D#|---------------------------------------|----------------------------------|
A#|---------------------------------------|----------------------------------|
F#|---10~--10~--10~--10~--10~--9~--9~--9~-|----------------------------------|
C#|---------------------------------------|---8~--8~--8~--8~--8~--8~--7~--7~-|
G#|---------------------------------------|----------------------------------|
C#|-0~---0~---0~---0~---0~---0~--0~--0~---|-8~--8~--8~--8~--8~--8~--7~--7~---|

D#|-------------------------------------|----------------------------------------------|
A#|-------------------------------------|----------------------------------------------|
F#|---7~--7~--7~--9~--9~--10~--10~--10~-|---9~---9~---9~---10~---10~---12~---12~---12~-|
C#|-------------------------------------|----------------------------------------------|
G#|-------------------------------------|----------------------------------------------|
C#|-8~--8~--8~--8~--8~--8~---8~---8~----|-10~--10~--10~--10~--10~---10~---10~---10~----|

INTRO 1x
VERSE 1x
PRE-CHORUS 1x
CHORUS 1x
PRE-CHORUS 1x

OUTRO (till end):
D#|-x-|   |-x-|   |-x-|   |-x-|   |-x-|   |-x--|   |-x--|   |-x--|   |-x--|
A#|-3-|   |-x-|   |-x-|   |-x-|   |-x-|   |-x--|   |-x--|   |-x--|   |-x--|
F#|-2-|   |-x-|   |-x-|   |-7-|   |-9-|   |-10-|   |-9--|   |-10-|   |-12-|
C#|-0-|   |-8-|   |-7-|   |-8-|   |-8-|   |-8--|   |-10-|   |-10-|   |-10-|
G#|-0-|   |-5-|   |-8-|   |-8-|   |-8-|   |-8--|   |-10-|   |-10-|   |-10-|
C#|-0-|8x |-5-|5x |-7-|3x |-8-|4x |-8-|2x |-8--|2x |-10-|4x |-10-|2x |-10-|2x

End on:
D#|-1~-|
A#|-3~-|
F#|-2~-|
C#|-0~-|
G#|-0~-|
C#|-0~-|

************************************

| /   slide up
| \   slide down
| h   hammer-on
| p   pull-off
| ~   vibrato
| +   harmonic
| x   Mute note
| b   Bend
| pb  Pre-bend
| br  Bend release
| pbr Pre-bend release
| brb Bend release bend

************************************
            
Submit corrections



        The Last Words lessons Hard to play? Try these video lessons and learn fast The Last Words lessons
        
↑ Back to top | Tablatures and chords for acoustic guitar and electric guitar, ukulele, drums are parodies/interpretations of the original songs. You may use it for private study, scholarship, research or language learning purposes only