» » »

I See Stars - The Common Hours Ii Tabs

Artists:  A B C D E F G H I J K L M N O P Q R S T U V W X Y Z # 

The Common Hours Ii Tabs

(ver. 1) Click to play this song!
I See Stars
 Rating:
4.2/5 (5 votes)


 The Common Hours Ii lessons Tabs too difficult? Try these video lessons and learn fast
 
                Tuning: Drop D
______________________________________________________________________________
0:05
E-----5-8-5-----------------------5-6-5---------|
B---6-------6-8-6-5-6-5-----5-6-8-------6-8-6---|
G-----------------------7-7-------------------7-| x3
D-----------------------------------------------|
A-----------------------------------------------|
D-----------------------------------------------|

0:22
E-----------------|
B-----------------|
G-----------------|
D---88-888-88-888-|
A---88-888-88-888-|
D---88-888-88-888-|

0:36
E--------------------------------------|
B--------------------------------------|
G---7--------9--------10-------5-------| x4
D---x--(x4)--x--(x4)--x--(x4)--x-(x4)--|
A---5--------7--------8--------3-------|
D--------------------------------------|

0:47
E-----5-8-5-----------------------5-6-5---------|
B---6-------6-8-6-5-6-5-----5-6-8-------6-8-6---|
G-----------------------7-7-------------------7-| x4
D-----------------------------------------------|
A-----------------------------------------------|
D-----------------------------------------------|

1:12
E-----------------------------------|
B------------6---6---6---6---6---6b-|
G------------9---9---9---9---9---9b-|
D---(Bass)--------------------------|
A----------0---0---0---0---0---0----|
D----------0---0---0---0---0---0----|
           *   *   *   *   *   *
1:18
E--------------------------------------|
B--------------------------------------|
G---7--------9--------10-------5-------| x4
D---x--(x4)--x--(x4)--x--(x4)--x-(x4)--|
A---5--------7--------8--------3-------|
D--------------------------------------|

1:29
E-----------------|
B-----------------|
G-----------------|
D---XXXX-00-XX-00-|
A---XXXX-00-XX-00-|
D---XXXX-00-XX-00-|

1:32
E-----5-8-5-----------------------5-6-5---------|
B---6-------6-8-6-5-6-5-----5-6-8-------6-8-6---|
G-----------------------7-7-------------------7-| x4
D-----------------------------------------------|
A-----------------------------------------------|
D-----------------------------------------------|

2:28
E---------------------------------|
B---------------------------------|
G---LL-LL--RR---------------------|
D---------------------------------|
A---00-00--00--00-00--00-00-00-00-|
D---00-00--00--00-00--00-00-00-00-|
    ** **  **  ** **  ** ** ** **
2:33
E---------------------------------|
B---------------------------------|
G---------------------------------|
D---------------------------------|
A---00-00--00--00-00--00-00-00-00-|
D---00-00--00--00-00--00-00-00-00-|
    ** **  **  ** **  ** ** ** **
2:44
E-----5-8-5-----------------------------|
B---6-------6-8-6-5-6-5-4-5-4-3-4-3-2---|
G-------------------------------------5-|
D---------------------------------------|
A---------------------------------------|
D---------------------------------------|

2:50
E---------------------------------|
B---------------------------------|
G---------------------------------|
D---------------------------------|
A---00-00--00--00-00--00-00-00-00-|
D---00-00--00--00-00--00-00-00-00-|
    ** **  **  ** **  ** ** ** **

Legend:
x     Dead Note
*     Palm Mute
b     Bend Note
L     Lead Guitar
R     Rhythm Guitar

END
            
Submit corrections



        The Common Hours Ii lessons Hard to play? Try these video lessons and learn fast The Common Hours Ii lessons
        
↑ Back to top | Tablatures and chords for acoustic guitar and electric guitar, ukulele, drums are parodies/interpretations of the original songs. You may use it for private study, scholarship, research or language learning purposes only