» » »

Iron Maiden - Strange World Tabs

Artists:  A B C D E F G H I J K L M N O P Q R S T U V W X Y Z # 

Strange World Tabs

(ver. 2) Click to play this song!
Iron Maiden
 Rating:
4/5 (4 votes)


 Strange World lessons Tabs too difficult? Try these video lessons and learn fast
 
                SOLO FROM SONG "STRNGE WORLD" PERFOMED BY IRON MAIDEN   



  1 SOLO


e--14-13-14~~---15h16-16-17~~---16h17p16p15h16p11h13~~---15p14-13-14~~----------------
 ------------------------------------------------------------------------10-12-13~~---
 -------------------------------------------------------------------------------------
 -------------------------------------------------------------------------------------
 -------------------------------------------------------------------------------------
E-------------------------------------------------------------------------------------


e-13----------11-12-13-11-12-13~~---15-15h16------------------------------------------
 ----13-13-----------------------------------16-17~~-------------11h12p11p10h11h12h13~
 ------------------------------------------------------9-11-12~~----------------------
 -------------------------------------------------------------------------------------
 -------------------------------------------------------------------------------------
E-------------------------------------------------------------------------------------


e------------------------------14\7/14---------------14-15-16-14-15-16~~--------------
 ----------------------------------------10-8-10~~------------------------------------
 -14h15p14p13h14p13p10p9h10~~---------------------------------------------------------
 -------------------------------------------------------------------------------------
 -------------------------------------------------------------------------------------
E-------------------------------------------------------------------------------------


e-17p15h16p14h15p13h14p12p11h12h13h14~~~~--
 ------------------------------------------
 ------------------------------------------
 ------------------------------------------
 ------------------------------------------
E------------------------------------------





  2 SOLO

e-------------11-13~--13~-----16~--16~--16~---16-15-14-13~~--------------14-15-16-17~-
 -10-12-13~~--------------14----------------------------------14-16-17~~--------------
 -------------------------------------------------------------------------------------
 -------------------------------------------------------------------------------------
 -------------------------------------------------------------------------------------
E-------------------------------------------------------------------------------------


e-16-17-16~~---15h16p15p14p13h14p13h14~~---15-16-15------------14~~---14/16\14-14~~---
 -----------------------------------------------------16-14-13------------------------
 -------------------------------------------------------------------------------------
 -------------------------------------------------------------------------------------
 -------------------------------------------------------------------------------------
E-------------------------------------------------------------------------------------


e-----------------------15h16h17h18h19p18p17h18~~---17-18-17--17--17--17--15-16-15----
 -14-14-15~--15~--15-17-------------------------------------19--19--19--19------------
 -------------------------------------------------------------------------------------
 -------------------------------------------------------------------------------------
 -------------------------------------------------------------------------------------
E-------------------------------------------------------------------------------------


e---15--15----------------------------------------------------------------------------
 -17--17--17p14h17p14p13p12h13-13p12h13p12p11p10h11h12h13p12p11h13~~~-----------------
 -------------------------------------------------------------------------------------
 -------------------------------------------------------------------------------------
 -------------------------------------------------------------------------------------
E-------------------------------------------------------------------------------------
            
Submit corrections



        Strange World lessons Hard to play? Try these video lessons and learn fast Strange World lessons
        
↑ Back to top | Tablatures and chords for acoustic guitar and electric guitar, ukulele, drums are parodies/interpretations of the original songs. You may use it for private study, scholarship, research or language learning purposes only