» » »

Iron Maiden - Brighter Than A Thousand Suns Tabs

Artists:  A B C D E F G H I J K L M N O P Q R S T U V W X Y Z # 

Brighter Than A Thousand Suns Tabs

(ver. 3) Click to play this song!
Iron Maiden
 Rating:
4/5 (4 votes)
                


                                 H  P
---FB---FB~~-12-14-15-14-12-14-12-14-12--------------------------------------------|
-12---12--------------------------------15---P-------------------------------------|
-------------------------------------------14-12-14--12----------------------------|
--------------------------------------------------------14-14-12-------------------|
-----------------------------------------------------------------12----------------|
--------------------------------------------------------------------/15-/17-17-17\-|


----------------------
-(12)/17\/19\/20\/22\-
----------------------|
----------------------|
----------------------|
----------------------|


---P--H--T--P--P--H--T--P--P--H--T--P--T--P--T--P--P--H----|T
-17-15-17-20-17-15-17-22-17-15-17-20-17-20-17-22-17-15-17--|
-----------------------------------------------------------|
-----------------------------------------------------------|
-----------------------------------------------------------|
-----------------------------------------------------------|

                                                  HB   HB~~
(T)--P--T--P--T--P--P--H--T--P--P--H--T--P------19---19-----|
---20-17-20-17-22-17-15-17-20-17-15-17-22-17----------------|
------------------------------------------------------------|
------------------------------------------------------------|
------------------------------------------------------------|
------------------------------------------------------------|

                                                              FB R FB   FB   FB
---------12---------FB-12-12---------------12---FB-12-------15--------15---15---|
---FB-12----15-12-15---------15-12---FB-12----15------15-12---------------------|
-14--------------------------------14-------------------------------------------|
--------------------------------------------------------------------------------|
--------------------------------------------------------------------------------|
--------------------------------------------------------------------------------|

   FB   FB   HB R       FB   FB
-15---15---17----(17)-17---17---|
--------------------------------|
--------------------------------|
--------------------------------|
--------------------------------|
--------------------------------|


----15-17----15-17----15-------------------------15-------------------------|
-17-------16-------17----15----15-17----15----17----17----15-17-------------|
----------------------------16-------16----14----------16-------16-14-16----|
-------------------------------------------------------------------------17-|
----------------------------------------------------------------------------|
----------------------------------------------------------------------------|


----------------------------|
----------------17-15-12-12-|
-14-16----14----------------|
-------17----14-------------|
----------------------------|
----------------------------|

                                       FB~~
---------12---P----------------------12-----|
---FB-12----15-12---------------------------|
-14-----------------------------------------|
------------------(5 Wiederholungen)--------|
--------------------------------------------|
--------------------------------------------|
            
Submit corrections

↑ Back to top | Tablatures and chords for acoustic guitar and electric guitar, ukulele, drums are parodies/interpretations of the original songs. You may use it for private study, scholarship, research or language learning purposes only