» » »

Iron Maiden - Be Quck Or Be Dead Tabs

Artists:  A B C D E F G H I J K L M N O P Q R S T U V W X Y Z # 

Be Quck Or Be Dead Tabs

(ver. 1) Click to play this song!
Iron Maiden
 Rating:
4/5 (4 votes)


 Be Quck Or Be Dead lessons Tabs too difficult? Try these video lessons and learn fast
 
                PROPS GO TO: Iron

Iron Maiden-Be Quick Or Be Dead
           transcripted be IRON

 drum intro...
 intro guitar:
      G5
 E|----------------------------------------|
 B|----------------------------------------|
 G|----------------------------------------|
 D|--------5-----3-----------5-----3-------|
 A|----------5-6---6-5-3-------5-6---6-3---|
 E|---3-3----------------3-3---------------|3x

 last time:
      G5
 E|---------------------------------------------|
 B|---------------------------------------------|
 G|---------------------------------------------|
 D|--------5-----3-----------5-----3-3----------|
 A|----------5-6---6-5-3-------5-6-----6-5-3~---|
 E|---3-3----------------3-3--------------------|
 
 verse:
 first time:
      G5	              D5 Eb5  
 E|-----------------------------------|
 B|-----------------------------------|   
 G|-----------------------------------|     
 D|----------------------------7--8---|     
 A|----------------------------5--6---|     
 E|---/3-3-3-3-3-3-3-3-3-3-3-3--------|\
  covered in siners...		        \
 second time:				 2x
      G5             Bb5 C5 Eb5 D5      /		 
 E|-----------------------------------|/
 B|-----------------------------------| 
 G|-----------------------------------|
 D|--------------------3--5--8--7-----|
 A|--------------------1--3--6--5-----|
 E|---/3-3-3-3-3-3-3-3----------------|

 chorus:
 first time:
      C5              Bb5     F5      
 E|--------------------------------------|
 B|--------------------------------------|
 G|--------------------------------------|
 D|--------------------------------------|
 A|---/3-3-3-3-3-3-3-3-1-1-1-1-----------|
 E|----------------------------1-1-1-1---|\ 
  you got to watch them...  		   \
 second time:				    2x
      C5              Bb5     Eb5 D5 Eb5   /
 E|--------------------------------------|/
 B|--------------------------------------|
 G|--------------------------------------|
 D|----------------------------8--7--8---|
 A|---/3-3-3-3-3-3-3-3-1-1-1-1-6--5--6---|
 E|--------------------------------------|

 pre bridge: 
      D5
 E|-----------------------------------------------|
 B|-----------------------------------------------|
 G|-----------------------------------------------|
 D|-------7-5--------5----------------------------|
 A|---5-5-----6--5-5---8-6--5-5-8-6-5-----6-5-----|
 E|-----------------------------------8-8-----8---|4x

 bridge 1:
     F5 G5
 E|----------|
 B|----------|
 G|----------|
 D|----------|
 A|---3--5---|
 E|---1--3---|4x
 see what's...
 bridge 2 
 first time:    
     G5 F5 C5 G5 Bb5 F5 G5
 E|-------------------------|
 B|-------------------------|
 G|-------------------------|
 D|---------5-----3---------|
 A|---5--3--3--5--1--3--5---|
 E|---3--1-----3-----1--3---|
       I bet you won’t...
 second time: 
     G5 F5 C5 G5 Bb5 C5 D5 Eb5 F5
 E|---------------------------------|
 B|---------------------------------|
 G|---------------------------------|
 D|---------5-----3--5--7---8--10---|
 A|---5--3--3--5--1--3--5---6--8----|
 E|---3--1-----3--------------------|
       Your belly will...
 repeat:
 -intro guitar 
 -verse
 -chorus 
 -pre bridge
 
 [solo not posted]
 background for solo 1:
     G5 F5 G5 F5 G5 F5 G5 F5 G5 Bb5Bb5 
 E|--------------------------------------|
 B|--------------------------------------|
 G|--------------------------------------|
 D|------------------------------3--3----|
 A|---5--3--5--3--5--3--5--3--5--1--1----|
 E|---3--1--3--1--3--1--3--1--3----------|\
 					   \
 background for solo 2:			    listen how much times  	
     D5 C5 D5 C5 D5 C5 D5 C5 D5  F5 F5     /
 E|--------------------------------------|/
 B|--------------------------------------|
 G|--------------------------------------|
 D|---7--5--7--5--7--5--7--5--7--10-10---|
 A|---5--3--5--3--5--3--5--3--5--8--8----|
 E|--------------------------------------|
 
 repeat:
 -chorus
 -pre bridge 2x and finish with G5
  
  end
            
Submit corrections



        Be Quck Or Be Dead lessons Hard to play? Try these video lessons and learn fast Be Quck Or Be Dead lessons
        
↑ Back to top | Tablatures and chords for acoustic guitar and electric guitar, ukulele, drums are parodies/interpretations of the original songs. You may use it for private study, scholarship, research or language learning purposes only