Home » I » Iron Butterfly »

Iron Butterfly - Termination Tabs

Artists:  A B C D E F G H I J K L M N O P Q R S T U V W X Y Z # 

Termination Tabs

(ver. 1) Click to play this song!
Iron Butterfly
 Rating:
4.3/5 (26 votes)
                e|---------------------------------------------------------------|
B|--------------------5-6-7--------------------------------------|
G|-----2---------5---------------2---------5---------------------|
D|-4-4--4--2/5-7---7---------4-4--4--2/5-7---7~------------------| play x7
A|---------------------------------------------------------------|
E|---------------------------------------------------------------|
 
e|---------------------------------------------------------------|
B|---------------------------------------------------------------|
G|-----2---------------------------------------------------------| play x2
D|-4-4--4----2-5-------------------------------------------------|
A|---------5----5------------------------------------------------|
E|---------------------------------------------------------------|
 
e|---------------------------------------------------------------|
B|---------------------------------------------------------------|
G|---------------------------------------------------------------|
D|-2-2-0-2p0-0--2-2-0-2p0-4--------------------------------------|
A|----------2------------2---------------------------------------|
E|---------------------------------------------------------------|
 
e|---------------------------------------------------------------|
B|---2-3-2-----2--2h4-2---2--------4----2------------------------|
G|-4---------4--4------4---4-2-----4----2------------------------|
D|---------------------------------4----2------------------------|
A|---------------------------------2----0------------------------|
E|---------------------------------------------------------------|
 
e|--------------------------------12---15/22-20-19---------------|
B|----------------12------15-12-15---15------------20------------|
G|-------11-12-14---14-12----------------------------------------|
D|-12-14---------------------------------------------------------|
A|---------------------------------------------------------------|
E|---------------------------------------------------------------|
 
e|---------------------------------------------------------------|
B|----------------12---------------------------------------------|
G|-------11-12-14---14-12-11--11-12-12/21-19---------------------|
D|-12-14--------------------12-----------------------------------|
A|---------------------------------------------------------------|
E|---------------------------------------------------------------|
 
e|---------------------------------------------------------------|
B|----------------12---------------------------------------------|
G|-------11-12-14---14-12-11--11-12-11---------------------------|
D|-12-14--------------------12---------12------------------------|
A|---------------------------------------------------------------|
E|---------------------------------------------------------------|
 
e|-5-----7-----10-----7-------7-----9-----10-----9---------------|
B|---8-----8------8-----8-------7-----7------7-----7-------------|
G|-----9-----9------9-----9-------7-----7------7-----7-----------|
D|---------------------------------------------------------------|
A|---------------------------------------------------------------|
E|---------------------------------------------------------------|
 
e|-5-----9------12------9--------10-----9-----7-----7------------|
B|---5-----10------10-----10--------7-----7-----7-----7----------|
G|-----6------9-------9------9--------7-----7-----7-----7--------|
D|---------------------------------------------------------------|
A|---------------------------------------------------------------|
E|---------------------------------------------------------------|
            
Submit corrections

↑ Back to top | Tablatures and chords for acoustic guitar and electric guitar, ukulele, drums are parodies/interpretations of the original songs. You may use it for private study, scholarship, research or language learning purposes only