» » »

Interpol - Untitled Bass

Artists:  A B C D E F G H I J K L M N O P Q R S T U V W X Y Z # 

Untitled Bass

(ver. 1) Click to play this song!
Interpol
 Rating:
4/5 (4 votes)

 Untitled  lessons Tabs too difficult? Try these video lessons and learn fast
 
                (1)
Notes: Carlos plays dropped D! I've seen them live.
       On the Chorus, there is a slight variation on the D# & A# parts.
       I can't figure it out :\


/ - Slide Up
~ - Ring out


Guitar Intro x4

Intro x4
G|----------------------------------------------------------|
D|----------------------------------------------------------|
A|----------------------------------------------------------|
D|-5-5-5--/10-10-10-1--1-1-1-1-1-1-1-8--8-8--8-8--8-8-7-6-5-|

Verse x4
G|-------------------------------------------------------------------|
D|-------------------------------------------------------------------|
A|-------------------------------------------------------------------|
D|-5-5-5--/10-10-10-1--1-1-1-1-1-1-1-8-8-8-8-8-8-8-8-8-8-8-8-8-7-6-5-|

Chorus x4
G|-----------------------------------------------------------|
D|-----------------------------------------------------------|
A|-----------------------------------------------------------|
D|-5-5-5--/10-10-10-0--1-1-1-1-1-1-1-8-8-8-8-8-8-8-8-8-8-8-8-|

Outro x2
G|--------------------------------------------------------------------|
D|--------------------------------------------------------------------|
A|--------------------------------------------------------------------|
D|-5-5-5-5/10-10-10-0-1-1-1-1-1-1-1-1-8-8-8-8-8-8-8-8-8-8-8-8-8-8-8-8-|

x1
G|-----------------------------|
D|-----------------------------|
A|-----------------------------|
D|-5-5-5--/10-10-10-0-1~~~~~~~-|

x2
G|----------------------------------|
D|----------------------------------|
A|----------------------------------|
D|-10-10—1~~~~~~~~~~~~~~~~~~~~~~~~~-|
            
Submit corrections


        Untitled  lessons Hard to play? Try these video lessons and learn fast Untitled  lessons
        
↑ Back to top | Tablatures and chords for acoustic guitar and electric guitar, ukulele, drums are parodies/interpretations of the original songs. You may use it for private study, scholarship, research or language learning purposes only