Home » I » Interpol »

Interpol - Take You On A Cruise Bass

Artists:  A B C D E F G H I J K L M N O P Q R S T U V W X Y Z # 

Take You On A Cruise Bass

(ver. 1) Click to play this song!
Interpol
----------------------------------------------------------------------------------
                            Take You On A Cruise - Interpol                                     
----------------------------------------------------------------------------------


|Song:          Take You On A Cruise
|Band:          Interpol
|Pace:          118bpm
|Tuning:        DADG



Guitar Intro (0:10)

G|---- ---- ---- ----|---- ---- ---- ----|---- ---- ---- ----|---- ---- ---- ----|
D|---- ---- ---- ----|---- ---- ---- ----|---- ---- ---- ----|---- ---- ---- ----|
A|---- ---- ---- ----|---- ---- ---- ----|---- ---- ---- ----|---- ---- ---- --0-|
D|---- ---- ---- ----|---- ---- ---- ----|---- ---- ---- ----|---- ---- ---- ----|

G|---- ---- ---- ----|--9- ---- ---- ----|--9- ---- ---- ----|---- 7--- --7- ----|
D|---- ---- ---- --0-|7--- ---- ---- ----|---- 9--- ---- ----|---- ---- ---- ----|
A|2--- ---- ---- ----|---- ---- ---- ----|---- ---- ---- ----|--5- ---- ---- ----|
D|---- ---- ---- ----|---- ---- ---- ----|---- ---- ---- ----|---- ---- ---- ----|


Verse (0:26)

G|---- ---- ---- ----|---- ---- ---- ----|---- ---- ---- ----|---- ---- ---- ----|
D|---- ---- ---- ----|4x4- 4x-- ---- ----|2--- --2- 2-0- --22|5-5- 5-00 2-0- ----|
A|2--- --2- 2-0- --0-|---- --00 2-0- --00|---- ---- ---- ----|---- ---- ---- ----|
D|---- ---- ---- ----|---- ---- ---- ----|---- ---- ---- ----|---- ---- ---- ----|

G|---- ---- ---- ----|---- ---- ---- ----|---- ---- ---- ----|---- ---- ---- ----|
D|---- ---- ---- ----|4x4- 4x-- ---- ----|2-2- 2x2- 2-0- --22|5-5- 5-00 2-0- ----|
A|2--- --22 2-0- --00|---- --00 2-0- --00|---- ---- ---- ----|---- ---- ---- ----|
D|---- ---- ---- ----|---- ---- ---- ----|---- ---- ---- ----|---- ---- ---- ----|

G|---- ---- ---- ----|---- ---- ---- ----|---- ---- ---- ----|---- ---- ---- ----|
D|---- ---- ---- ----|4x4- 4x-- ---- ----|2--- --2- 2-0- --22|5-5- 5-00 2-0- ----|
A|2--- --22 2-0- --0-|---- --00 2-0- --00|---- ---- ---- ----|---- ---- ---- ----|
D|---- ---- ---- ----|---- ---- ---- ----|---- ---- ---- ----|---- ---- ---- ----|

G|---- ---- ---- ----|---- ---- ---- ----|---- ---- ---- ----|---- ---- ---- ----|
D|---- ---- ---- ----|4x4- 4x-- ---- ----|2-2- 2x2- 2-0- --22|5-5- 5-00 2-0- ----|
A|2--- --22 2-0- --00|---- --00 2-0- --00|---- ---- ---- ----|---- ---- ---- ----|
D|---- ---- ---- ----|---- ---- ---- ----|---- ---- ---- ----|---- ---- ---- ----|


Pre-Chorus (0:59)

G|---- ---- ---- ----|---- ---- ---- ----|---- ---- ---- ----|---- ---- ---- ----|  }
D|---- ---- ---- ----|---- ---- ---- ----|---- ---- ---- ----|---- ---- ---- ----|  }
A|---- ---- ---- ----|---- ---- ---- ----|---- ---- ---- ----|---- ---- ---- ----|  } x2
D|---- ---- ---- ----|---- ---- ---- ----|---- ---- ---- ----|---- ---- ---- ----|  }

G|---- ---- ---- ----|---- ---- ---- ----|---- ---- ---- ----|---- ---- --7- ----|
D|---- ---- ---- ----|---- ---- ---- ----|---- ---- ---- ----|---- ---- ---- ----|
A|---- ---- ---- ----|---- ---- ---- ----|---- ---- ---- ----|---- ---- ---- 5-7-|
D|---- ---- ---- ----|---- ---- ---- ----|---- ---- ---- ----|---- ---- ---- ----|


Chorus 1 (1:24)

G|---- ---- ---- ----|---- ---- ---- ----|---- ---- ---- ----|---- ---- ---- ----|  }
D|---- ---- ---- ----|---- ---- ---- ----|---- ---- ---- ----|---- ---- ---- ----|  }
A|---- ---- ---- ----|---- ---- ---- ----|2-2- --2- --2- 2-2-|0-5- --5- --5- ----|  } x2
D|5-5- 5-5- 5-5- 5-5-|2-2- 2-2- 2-2- 2-2-|---- ---- ---- ----|---- ---- ---- 0-2-|  }

G|---- ---- ---- ----|---- ---- ---- ----|---- ---- ---- ----|---- ---- ---- ----|
D|---- ---- ---- ----|---- ---- ---- ----|---- ---- ---- ----|---- ---- ---- ----|
A|---- ---- ---- ----|---- ---- ---- ----|2-2- --2- --2- 2-2-|2-0- --0- --0- 0-0-|
D|5-5- 5-5- 5-5- 5-5-|2-2- 2-2- 2-2- 2-2-|---- ---- ---- ----|---- ---- ---- ----|

G|---- ---- ---- ----|---- ---- ---- ----|---- ---- ---- ----|---- ---- ---- ----|
D|---- ---- ---- ----|---- ---- ---- ----|---- ---- ---- ----|---- ---- ---- ----|
A|---- ---- ---- ----|---- ---- ---- ----|5-5- 5-5- 5-5- 5-5-|6-6- 6-6- 6-6- 6-6-|
D|5-5- 5-5- 5-5- 5-5-|2-2- 2-2- 2-2- 2-2-|---- ---- ---- ----|---- ---- ---- ----|


Break 1 (1:56)

G|---- ---- ---- ----|9--- ---- ---- ----|--11 ---- ---- ----|--9- ---- ---- ----|
D|---- ---- ---- --9-|---- ---- ---- ----|9--- ---- ---- ----|7--- ---- ---- ----|
A|7--- ---- ---- ----|---- ---- ---- ---0|---- ---- ---- --0-|---- ---- ---- ----|
D|---- ---- ---- ----|---- ---- ---- ----|---- ---- ---- ----|---- ---- ---- ----|

G|--9- ---- ---- ----|---- 7--- --7- ----|
D|---- 9--- ---- ----|---- ---- ---- ----|
A|---- ---- ---- ----|--5- ---- ---- ----|
D|---- ---- ---- ----|---- ---- ---- ----|


Chorus 2 (2:08)

G|---- ---- ---- ----|---- ---- ---- ----|---- ---- ---- ----|---- ---- ---- ----|  }
D|---- ---- ---- ----|---- ---- ---- ----|---- ---- ---- ----|---- ---- ---- ----|  }
A|2-2- 2-2- 2-2- 2-2-|0-0- 0-0- 0-0- 0-0-|7-7- 7-7- 7-7- 7-7-|5-5- 5-5- 5-5- 5-5-|  } x3
D|---- ---- ---- ----|---- ---- ---- ----|---- ---- ---- ----|---- ---- ---- ----|  }

G|---- ---- ---- ----|---- ---- ---- ----|---- ---- ---- ----|---- ---- ---- ----|
D|---- ---- ---- ----|---- ---- ---- ----|---- ---- ---- ----|---- ---- ---- ----|
A|2-2- 2-2- 2-2- 2-2-|0-0- 0-0- 0-0- 0-0-|7-7- 7-7- 7-7- 7-7-|5-5- 5-5- 5-5- ----|
D|---- ---- ---- ----|---- ---- ---- ----|---- ---- ---- ----|---- ---- ---- ----|


Pre-Chorus (2:41) 

G|---- ---- ---- ----|---- ---- ---- ----|---- ---- ---- ----|---- ---- ---- ----|  }
D|---- ---- ---- ----|---- ---- ---- ----|---- ---- ---- ----|---- ---- ---- ----|  }
A|---- ---- ---- ----|---- ---- ---- ----|---- ---- ---- ----|---- ---- ---- ----|  } x2
D|---- ---- ---- ----|---- ---- ---- ----|---- ---- ---- ----|---- ---- ---- ----|  } 

G|---- ---- ---- ----|---- ---- ---- ----|---- ---- ---- ----|---- ---- --7- ----|
D|---- ---- ---- ----|---- ---- ---- ----|---- ---- ---- ----|---- ---- ---- ----|
A|---- ---- ---- ----|---- ---- ---- ----|---- ---- ---- ----|---- ---- ---- 5-7-|
D|---- ---- ---- ----|---- ---- ---- ----|---- ---- ---- ----|---- ---- ---- ----|


Chorus 1 (3:05)

G|---- ---- ---- ----|---- ---- ---- ----|---- ---- ---- ----|---- ---- ---- ----|  }
D|---- ---- ---- ----|---- ---- ---- ----|---- ---- ---- ----|---- ---- ---- ----|  }
A|---- ---- ---- ----|---- ---- ---- ----|2-2- --2- --2- 2-2-|0-5- --5- --5- ----|  } x2
D|5-5- 5-5- 5-5- 5-5-|2-2- 2-2- 2-2- 2-2-|---- ---- ---- ----|---- ---- ---- 0-2-|  }

G|---- ---- ---- ----|---- ---- ---- ----|---- ---- ---- ----|---- ---- ---- ----|
D|---- ---- ---- ----|---- ---- ---- ----|---- ---- ---- ----|---- ---- ---- ----|
A|---- ---- ---- ----|---- ---- ---- ----|2-2- --2- --2- 2-2-|2-0- --0- --0- 0-0-|
D|5-5- 5-5- 5-5- 5-5-|2-2- 2-2- 2-2- 2-2-|---- ---- ---- ----|---- ---- ---- ----|

G|---- ---- ---- ----|---- ---- ---- ----|---- ---- ---- ----|---- ---- ---- ----|
D|---- ---- ---- ----|---- ---- ---- ----|---- ---- ---- ----|---- ---- ---- ----|
A|---- ---- ---- ----|---- ---- ---- ----|5~-- ---- ---- ----|6~-- ---- ---- ----|
D|5-5- 5-5- 5-5- 5-5-|2-2- 2-2- 2-2- 2-2-|---- ---- ---- ----|---- ---- ---- ----|


Break 2 (3:38)

G|---- ---- ---- ----|---- ---- ---- ----|---- ---- ---- ----|---- ---- ---- ----|
D|---- ---- ---- ----|---- ---- ---- ----|---- ---- ---- ----|---- ---- ---- ----|
A|---- ---- ---- ----|---- ---- ---- ----|---- ---- ---- ----|---- ---- ---- ----|
D|2~-- ---- ---- ----|---- ---- ---- ----|---- ---- ---- ----|---- ---- ---- ----|

G|---- ---- ---- ----|---- ---- ---- ----|---- ---- ---- ----|---- ---- ---- ----|
D|---- ---- ---- ----|---- ---- ---- ----|---- ---- ---- ----|---- ---- ---- ----|
A|---- ---- ---- ----|---- ---- ---- ----|---- ---- ---- ----|---- ---- ---- ----|
D|---- ---- ---- ----|---- ---- ---- ----|---- ---- ---- ----|---- ---- ---- ----|


Bridge (3:54)

G|---- ---- ---- ----|---- ---- ---- ----|---- ---- ---- ----|---- ---- ---- ----|
D|---- ---- ---- --44|4-x- ---- ---- --22|2-x- 2-x- 2-0- --55|5-x- 2-x- 2-0- ----|
A|2-x- 2-x- 2-0- x---|---- 2-x- 2-0- x---|---- ---- ---- ----|---- ---- ---- --22|
D|---- ---- ---- ----|---- ---- ---- ----|---- ---- ---- ----|---- ---- ---- ----|

G|---- ---- ---- ----|---- ---- ---- ----|---- ---- ---- ----|---- ---- ---- ----|
D|---- ---- ---- --44|4-x- ---- ---- --22|2-x- 2-x- 2-0- --55|5--- ---- ---- ----|
A|2-x- 2-x- 2-0- x---|---- 2-x- 2-0- x---|---- ---- ---- ----|---- ---- ---- ----|
D|---- ---- ---- ----|---- ---- ---- ----|---- ---- ---- ----|---- ---- ---- ----|


Outro (4:10)

G|---- ---- ---- ----|---- ---- ---- ----|---- ---- ---- ----|---- ---- ---- ----|  }
D|---- ---- ---- ----|---- ---- ---- ----|---- ---- ---- ----|---- ---- ---- ----|  }
A|---- ---- ---- ----|---- ---- ---- 0-1-|2-2- 2-2- 2-2- 0-2-|5-5- 5-5- 5-5- ----|  } x2
D|5-5- 5-5- 5-5- 4-4-|2-2- 2-2- 2-2- ----|---- ---- ---- ----|---- ---- ---- 2-4-|  }

G|---- ---- ---- ----|---- ---- ---- ----|---- ---- ---- ----|---- ---- ---- ----|
D|---- ---- ---- ----|---- ---- ---- ----|---- ---- ---- ----|---- ---- ---- ----|
A|---- ---- ---- ----|---- ---- ---- 0-1-|2-2- 2-2- 2-2- 2-2-|0-0- 0-0- 0-0- 0-0-|
D|5-5- 5-5- 5-5- 4-4-|2-2- 2-2- 2-2- ----|---- ---- ---- ----|---- ---- ---- ----|

G|---- ---- ---- ----|---- ---- ---- ----|---- ---- ---- ----|---- ---- ---- ----|
D|---- ---- ---- ----|---- ---- ---- ----|---- ---- ---- ----|---- ---- ---- ----|
A|---- ---- ---- ----|---- ---- ---- ----|5-5- 5-5- 5-5- 5-5-|6x6x 6x6x 6x6x 6x6x|
D|5-5- 5-5- 5-5- 4-4-|2-2- 2-2- 2-2- 2-2-|---- ---- ---- ----|---- ---- ---- ----|

G|---- ---- ---- ----|
D|---- ---- ---- ----|
A|7~-- ---- ---- ----|
D|---- ---- ---- ----|



| x  mute
| ~  let ring



Notes:
This song is in 4/4 and the tabbing is done accordingly.
Each measure is marked by vertical bars, each beat by spaces.
Each beat contains 4 hyphens (dashes), representing sixteenths.
The tab starts at the intro of the second guitar. It's hard to define measure in 
the time before that.
Please e-mail me if you have remarks, questions etc.
            
Submit corrections

↑ Back to top | Tablatures and chords for acoustic guitar and electric guitar, ukulele, drums are parodies/interpretations of the original songs. You may use it for private study, scholarship, research or language learning purposes only