Home » I » Interpol »

Interpol - Say Hello To The Angels Bass

Artists:  A B C D E F G H I J K L M N O P Q R S T U V W X Y Z # 

Say Hello To The Angels Bass

(ver. 2) Click to play this song!
Interpol
 Rating:
4/5 (4 votes)
                Interpol
Say Hello To The Angels

Intro (repeat a while)
G|-----------------------------------------|
D|-----------------------------------------|
A|-5555-5555-5555-5555-5555-5555-5555-5555-|
D|-----------------------------------------|

Verse x3
G|------------------------------------------------------------------|
D|-0--33-0-33---33-0--33-0-33---33----------------------------------|
A|---------------------------------0--33-0-33---33-0--33-0-33---3-4-|
D|------------------------------------------------------------------|

x1
G|------------------------------------------------------------------|
D|-0--33-0-33---33-0--33-0-33---33----------------------------------|
A|---------------------------------0--33-0-33---33-0--33-0/33333333-|
D|------------------------------------------------------------------|

x1
G|-----------|
D|-----------|
A|-----------|
D|-3~~~-3~~~-|

Chorus x1
G|----------------------------7---5----------------------------------|
D|---------3p3p3p3p--------------------------------------------------|
A|-0-0-0-0----------0-0-0-0-5---3---0--33-0-33---33-3--33-3-33---2-1-|
D|-------------------------------------------------------------------|

x2
G|----------------------------7---5------------5---------------------|
D|---------3p3p3p3p--------------------------------------------------|
A|-0-0-0-0----------0-0-0-0-5---3---0--33-0-33---33-3--33-3-33---2-1-|
D|-------------------------------------------------------------------|

x1
G|----------------------------7---5------------5-----------------------------|
D|---------3p3p3p3p----------------------------------------------------------|
A|-0-0-0-0----------0-0-0-0-5---3---0--33-0-33---33-3--33--/1313131313131313-|
D|---------------------------------------------------------------------------|

Bridge x1
G|----------------------------------------------------------|
D|-------3~~-------22-22--3-3-3-3-3-3-2-2-------------------|
A|-0~~~~-----0~~~~-------0-0-0-0-0-0-0-0--0-0-0-0-0000-1111-|
D|----------------------------------------------------------|

G|------------------------------------------------------------------------|
D|-------------------------------------------------------------7-7-7-77-7-|
A|-3-3-3-33----------3-3-3-33-5-5-5-55-0-0-0-0-0-0-0-0-1-1-1-1------------|
D|----------1-1-1-11------------------------------------------------------|

G|-------------------------------------------------------------------|
D|-------------------------------------------------------------------|
A|-3-3-3-3-3-------3-3-3-3-5-5-5-55-0-0-0-0-0-0-0-0-1p1p1p1p---------|
D|-----------3-3-3-------------------------------------------8p8p8p-|

Intro (repeat a while)
G|-----------------------------------------------------------------|
D|-----------------------------------------------------------------|
A|-5-5-5-5-5-5-5-5-5-5-5-5-5-5-5-5-5-5-5-5-5-5-5-5-5-5-5-5-5-5-5-5-|
D|-----------------------------------------------------------------|

Chorus x1
G|----------------------------7---5------------5---------------------|
D|---------3p3p3p3p--------------------------------------------------|
A|-0-0-0-0----------0-0-0-0-5---3---0--33-0-33---33-3--33-3-33---2-1-|
D|-------------------------------------------------------------------|

G|----------------------------7---5----------------------------------|
D|---------3p3p3p3p--------------------------------------------------|
A|-0-0-0-0----------0-0-0-0-5---3---0--33-0-33---33-3--33--/33333333-|
D|-------------------------------------------------------------------|

Bridge x1			x8
G|--------------------|-----------------------|
D|-------3~~~~--------|-----------------------|
A|--------------------|-----0-----------5300--|
D|-3~~~~-------2-3----|-3-3--50-0023-333----5-|

Outro
G|---------------------------------------|
D|---------------------------------------|
A|---------------------------------------| x2
D|-10-10-10-10-10-10-10-105-5-5-53-3-3-3-|

G|-------------------------------------|
D|-------------------------------------|
A|-------------------------------------|
D|-0-0-0-0-0-0-0-0-3-3-3-3/10-10-10-10-|

G|-------------------------------------|
D|-------------------------------------| only play this bar first time
A|-------------------------------------| then play the 'end' the
D|-0-0-0-0-2-2-2-2-3-3-3-3/10-10-10-10-| second time
                                         
Repeat Outro twice

End
G|-------------------------------------------|
D|-------------------------------------------|
A|-------------------------------------------|
D|-0~~~-2~~~-3~~~-10-10-10-10-11-11-11-11-12-|
            
Submit corrections

↑ Back to top | Tablatures and chords for acoustic guitar and electric guitar, ukulele, drums are parodies/interpretations of the original songs. You may use it for private study, scholarship, research or language learning purposes only