Home » I » Interpol »

Interpol - Say Hello To The Angels Bass

Artists:  A B C D E F G H I J K L M N O P Q R S T U V W X Y Z # 

Say Hello To The Angels Bass

(ver. 1) Click to play this song!
Interpol
 Rating:
4/5 (4 votes)
                Intro(0:40 to 1:17)
G:--------------------------------------------------------------------------------------
D:-0--33-0-33-0-33-0--33-0-33-0-33------------------------------------------
A:----------------------------------0--33-0-33-0-33-0--33-0-33-0-34
E:---------------------------------------------------------------------------------------

verse(1:18 to 1:57 and them 2:56 to 3:15)
G:----------------------------------7-5---------------------------------------
D:------------------3333333----------------------------------------------------------
A:-----------000000--------000000-5--3--3333333333333333-2-1-------
E:-1---1-----------------------------------------------------------------------------------

final vrse(1:58 to 1:59)
G:do----------------------
D:the---------------------
A:same--------------3/3333
E:but in the end do:------

(2:00 to 2:18)
G:-----------------------------------------------------------------------
D:-----3------22-22-----3-3-3-3-3-3-2-----------------------------
A:0-----0-----------0--0-0-0-0-0-------00000000-11111111--
E:------------------------------------------------------------------------

(2:18 to 2:38)
G:----------------------------------------------------------------
D:-------------------------------------------33Ph2-3ph2
A:-33333----3333-5555-00000000-1111---------------
E:------111---------------------------------------------------

(3:15 to 3:41)
G:----------------------------
D:-----------------------------
A:------------2-5-5555
E:1-1-5-2-0-01-------------

(3:15 to 4:18)
G:-----------------------------
D:------------------------------
A:-------------------------------
E:88888888/3333/111111

sometimes
G------------------
D------------------
A--------3333
E-0000111------

thank to the people that send email to make tabs,if you want my to do a tab send you email to 
            
Submit corrections

↑ Back to top | Tablatures and chords for acoustic guitar and electric guitar, ukulele, drums are parodies/interpretations of the original songs. You may use it for private study, scholarship, research or language learning purposes only