» » »

Insolence - Death Threat Bass

Artists:  A B C D E F G H I J K L M N O P Q R S T U V W X Y Z # 

Death Threat Bass

(ver. 1) Click to play this song!
Insolence
 Rating:
4/5 (4 votes)
                
Behold...my first bass tab! Don't like the band especially, just the song, 
don't have the album or anything...

The order of play goes like this (follow all repeat marks) : A,B,C,B,C,D,A,B,C,D,E

The timing may not be exact, but the notes are all there - if you listen to 
the song you should pick the rhythm up easily (he says!)

"A"

G |--------|--------|	X2
D |--------|--------|
A |--------|2-------|
E |4--43--3|--------|

"B"

G |--------|--------|	X4 (Each Time)
D |--------|--------|
A |--------|2-------|
E |4--43--3|--------|

"C"

G |--------|--------|	X2 (Both Times)
D |----0-00|--------|
A |0-00----|----0-00|
E |--------|3-33----|

"D"

G |--------|--------|--------|--------| X3   In pauses at end (This is a death threat/
D |--------|--------|--------|--------|			       Comin' through yer headset/	
A |566-56-6|-56-5665|6-5-56-6|--------|			       This is war!)
E |--------|--------|--------|--------|

G |--------|--------|--------|--------| X1   (So bring it on, bring it on, bring it on)
D |--------|--------|--------|--------|
A |566-56-6|-56-5665|6-5-56-6|656-5666|
E |--------|--------|--------|--------|

G |--------|--------|--------|--------| X3   (Death threat comin' from a...) 
D |-------4|-44-44-4|--------|--------|
A |6-6-66--|--------|5-5-55-6|6-66-6-6|
E |--------|--------|--------|--------|

G |--------|--------|--------|--------| X1   (...say what you want, do what you will)
D |-------4|-44-44-4|--------|--------|
A |6-6-66--|--------|5-------|--------|
E |--------|--------|--------|--------|

"E"

G |--------|--------|--------|--------| X3  (Emergency.../
D |-------4|-44-44-4|--------|--------|      Operation.../
A |6-6-66--|--------|5-5-55-6|6-------|      Human decision required...) 
E |--------|--------|--------|--------|

G |--------|--------|--------|--------| X1  (No lyrics)
D |-------4|-44-44-4|--------|--------|
A |6-6-66--|--------|5-5-55-6|6-66-6-6|
E |--------|--------|--------|--------|

G |--------|--------|--------|--------| X3  (Death threat comin' from a...)
D |-------4|-44-44-4|--------|--------|
A |6-6-66--|--------|5-5-55-6|6-66-6-6|
E |--------|--------|--------|--------|

G |--------|--------|--------|--------| X1  (...say what you want, do what you will) -END-
D |-------4|-44-44-4|--------|--------|
A |6-6-66--|--------|5-------|--------|
E |--------|--------|--------|--------|
            
Submit corrections

↑ Back to top | Tablatures and chords for acoustic guitar and electric guitar, ukulele, drums are parodies/interpretations of the original songs. You may use it for private study, scholarship, research or language learning purposes only