» » »

In Flames - Embody The Invisible Bass

Artists:  A B C D E F G H I J K L M N O P Q R S T U V W X Y Z # 

Embody The Invisible Bass

(ver. 2) Click to play this song!
In Flames
 Rating:
4/5 (4 votes)


 Embody The Invisible lessons Tabs too difficult? Try these video lessons and learn fast
 
                
IN FLAMES -  EMBODY THE INVISIBLE(BASS)


..  - palm mute          /  - slide up to
 \  - slide down to      ~  - vibrato
 h  - hammer on          b  - bend
 p  - pull off            Suffixes for bend
                          ph - pinch harmonic
                           f - full bend    h - half bend
*  - see comment           r - release      t - tap bend
X  - percussion mute       ~ - vibrato bend
@  - slight palm mute     () - ghost note, sustained note

Tune Bass to (C,F,Bb,Eb)

Intro: Just do a slow slide to the 12th fret on the C string.

Riff A (main riff)
|--------------------------------------------------------------|
|--------------------------------------------------------------|
|-----2--2--3--3-----------------7--7--3333--5--3--5-----------|
|--0--------------0--3--7--7--7--------------------------------|


Riff B
|--------------------------------------------------------------|
|--------------------------------------------------------------|
|--------7-----7--5--7--------7--------5--------------5h7------|
|--0--0-----0-----------0--0-----0--3-----3--0--5--7-----------|


Riff C.1
|--------------------------------------------------------------|
|--------------------------------------------------------------|
|----------------------5--5--5---------------------------------|
|--7--7--7/3--3--3--3-----------0-2-3-5-7-5-3--7-5-3-5-3-2-----|


Riff C.2
|--------------------------------------------------------------|
|--------------------------------------------------------------|
|----------------------5--5--5--3--2--0-----333--5-------------|
|--7--7--7/3--3--3--3--------------------3-----------2222222/7-|


Riff D
|--------------------------------------------------------------|
|--------------------------------------------------------------|
|--3-----3-----2-----2-----5-----5-----------------------------|
|-----5-----5-----3-----3-----7-----7--------------------------|

Riff E.1
|--------------------------------------------------------------|
|--------------------------------------------------------------|
|----------2-2-2-2--5-5-5-5------------------------------------|
|-0-0-0-0--------------------5-5-5-5---------------------------|

Riff E.2
|--------------------------------------------------------------|
|--------------------------------------------------------------|
|----------2-2-2-2--3-3-3-3--5-5-5-5---------------------------|
|-0-0-0-0------------------------------------------------------|

Riff F
|--------------------------------------------------------------|
|--------------------------------------------------------------|
|--2-----2-----------------------------------------------------|
|-----2-----2--3-3-3--5-5-5-5--2-2-2--3-3-3-3--0-0-0-----------|

Riff G
|--------------------------------------------------------------|
|--------------------------------------------------------------|
|--------------------------------------------------------------|
|--10~--7~--9~--5~--3~--6~--6~--7~--9~--10~--------------------|

Riff H
|--------------------------------------------------------------|
|--------------------------------------------------------------|
|--7-7-7--5-5-5--3-3-3--2-2-2----------------------------------|
|------------------------------5-5-5---------------------------|


Ok, thats it. Listen to the cd for the order. Once again, Overkill,
            
Submit corrections



        Embody The Invisible lessons Hard to play? Try these video lessons and learn fast Embody The Invisible lessons
        
↑ Back to top | Tablatures and chords for acoustic guitar and electric guitar, ukulele, drums are parodies/interpretations of the original songs. You may use it for private study, scholarship, research or language learning purposes only