» » »

Infected Mushroom - Heavyweight Tabs

Artists:  A B C D E F G H I J K L M N O P Q R S T U V W X Y Z # 

Heavyweight Tabs

(ver. 3) Click to play this song!
Infected Mushroom
 Rating:
4/5 (4 votes)


 Heavyweight lessons Tabs too difficult? Try these video lessons and learn fast
 
                        Chords Used                     Solo pt.1
E|----------------------|-----------------------------------------------|
B|----------------------|-----------------------------------------------|
G|---11---11---10---9---|----11--12--11------------11--12--11-----------|
D|---14---12---12---10--|---------------14----14--------------14----14--|
A|---14---14---12---12--|------------------14--------------------14-----|
E|----------------------|-----------------------------------------------|

E|-----------------------------------------------------------|
B|-----------------------------------------------------------|
G|---11--12--11--------------11--12--11----------------------|
D|--------------12----12----------------12----12-------------|
A|-----------------14----------------------14----------------|
E|-----------------------------------------------------------|

E|-----------------------------------------------|
B|-----------------------------------------------|
G|----10--12--10------------10--12--10-----------|
D|---------------12----12--------------12----12--|
A|------------------12--------------------12-----|
E|-----------------------------------------------|

----------------------------------------------|
----------------------------------------------|
---9--12--9---------------9--12--9------------|
-------------10----10----------------10----10-|
----------------12----------------------12----|
----------------------------------------------|

E|---14--15--14------------14--15--14------------14--15--14------------|
B|--------------17----17---------------17----17--------------15----15--|
G|-----------------16---------------------16--------------------16-----|
D|---------------------------------------------------------------------|
A|---------------------------------------------------------------------|
E|---------------------------------------------------------------------|

E|---14--15--14------------13--15--13------------13--15--13-------------|
B|---------------15----15--------------15----15-------------15----15----|
G|------------------16--------------------14-------------------14-------|
D|----------------------------------------------------------------------|
A|----------------------------------------------------------------------|
E|----------------------------------------------------------------------|

E|---12--13--12------------12--13--12------------|---|
B|--------------13----13---------------13----13--|---|
G|-----------------14---------------------12-----|---|
D|-----------------------------------------------|---|
A|-----------------------------------------------|---|
E|-----------------------------------------------|---|
            
Submit corrections



        Heavyweight lessons Hard to play? Try these video lessons and learn fast Heavyweight lessons
        
↑ Back to top | Tablatures and chords for acoustic guitar and electric guitar, ukulele, drums are parodies/interpretations of the original songs. You may use it for private study, scholarship, research or language learning purposes only