» » »

Incubus - The Warmth Tabs

Artists:  A B C D E F G H I J K L M N O P Q R S T U V W X Y Z # 

The Warmth Tabs

(ver. 2) Click to play this song!
Incubus
 Rating:
4/5 (4 votes)


 The Warmth lessons Tabs too difficult? Try these video lessons and learn fast
 
                "(1)
This one is realy cool and one of my faves at the moment

-|--------------------19------------------------------------------------------
-|-19b-17----17---------------------------------------------------------------
-|--------19----19-16----16---------------------------------------------------
-|----------------------------------------------------------------------------
-|----------------------------------------------------------------------------
-|----------------------------------------------------------------------------
                                                                              

-|-12-121212--12-12--8-8-888-3-333-3--0-0-00-0--------------------------------
-|-12-121212--12-12--8-8-888-3-333-3--0-0-00-0--------------------------------
-|----------------------------------------------------------------------------
-|----------------------------------------------------------------------------
-|----------------------------------------------------------------------------
-|----------------------------------------------------------------------------
                                                                              

-|--------------333-00-0------------------------------------------------------
-|------1-1-1-1-333-00-0------------------------------------------------------
-|-9-99-0-0-0-0-000-00-0------------------------------------------------------
-|-9-99-2-2-2-0-000-22-2------------------------------------------------------
-|-7-77-3-3-3-2-222-22-2------------------------------------------------------
-|------------3-333-00-0------------------------------------------------------
                                                                              

-|----------------------------------------------------------------------------
-|-17----17-------------------------------------------------------------------
-|----19----19----------------------------------------------------------------
-|----------------------------------------------------------------------------
-|----------------------------------------------------------------------------
-|----------------------------------------------------------------------------
                                                                              

-|--------------7-------------------------------------------------------------
-|-7b-5---5-------------------------------------------------------------------
-|------7---7-4---4-----------------------------------------------------------
-|----------------------------------------------------------------------------
-|----------------------------------------------------------------------------
-|----------------------------------------------------------------------------
"            
Submit corrections



        The Warmth lessons Hard to play? Try these video lessons and learn fast The Warmth lessons
        
↑ Back to top | Tablatures and chords for acoustic guitar and electric guitar, ukulele, drums are parodies/interpretations of the original songs. You may use it for private study, scholarship, research or language learning purposes only