» » »

Incubus - Promises Promises Bass

Artists:  A B C D E F G H I J K L M N O P Q R S T U V W X Y Z # 

Promises Promises Bass

(ver. 1) Click to play this song!
Incubus
 Rating:
4/5 (4 votes)


 Promises Promises lessons Tabs too difficult? Try these video lessons and learn fast
 
                -------------------------------------------------------------------------------
			     Promises, Promises - Incubus
-------------------------------------------------------------------------------


Tuning: Standard E,A,D,G

  Intro
G|-----------------------------|
D|-----------------------------| x2
A|-3--3-2----------------------|
E|--------0-3--x0-3--0-3-5--1--|

  Verse
G|-----------------------------|
D|-----------------------------| x4
A|-3--3-2----------------------|
E|--------0-3--x0-3--0-3-5--1--|


  Pre-Chorus
G|-------------------------------------------------------------------|
D|--------------3-------------------------------3--------------------|
A|-5-555-555-555-53---------------35-555-555-555-53--------------0235|
E|-----------------1-111-111-111-5-----------------1-111-1/5-3--3----|


  Chorus
G|--------------------------------------------------------|
D|--------------------------------------------------------|
A|3--3-2----------------------3--3-2----------------------|
E|-------0-3--x0-3--0-3-5--1---------0-3--x0-3--0-3-5--1--|

G|--------------------------------------------------------|
D|-------2---------------------------2-5------------------|
A|3--3-5---5------------------3--3-2----------------------|
E|------------x0-3--0-3-5--1--------------x0-3--0-3-5--1--|


  Post-Chorus
G|------------------------------------------------------|
D|-------2-5--2-5----5-7--3---------2-5--2-5------------|
A|3--3-2-----------7---------3--3-2---------------------|
E|--------------------------------------------0-3-5--1--|


  2nd Verse
G|-----------------------------|
D|-----------------------------| x4
A|-3--3-2----------------------|
E|--------0-3--x0-3--0-3-5--1--|


  Pre-Chorus
G|-------------------------------------------------------------------|
D|--------------3-------------------------------3--------------------|
A|-5-555-555-555-53---------------35-555-555-555-53--------------0235|
E|-----------------1-111-111-111-5-----------------1-111-1/5-3--3----|

G|-------------------------------------------------------------------|
D|--------------353-333-333-3335/777--------------353-3335/7775-5532-|
A|5-555-555-5555--------------------5-555-555-555-------------------5|
E|-------------------------------------------------------------------|


  2nd Chorus
G|--------------------------------------------------------|
D|--------------------------------------------------------|
A|3--3-2----------------------3--3-2----------------------|
E|-------0-3--x0-3--0-3-5--1---------0-3--x0-3--0-3-5--1--|

G|--------------------------------------------------------|
D|-------2------------------------------------------------|
A|3--3-5---5------------------3--3-2----------------------|
E|------------x0-3--0-3-5--1---------0-3--x0-3--0-3-5--1--|


  Bridge
G|--------------------------------|
D|3-3-3-3-3-3-3-3------------5----|
A|----------------0-0-0--03-3-----|
E|----------------------3-----3-3-|

G|---------------------------------|
D|3-3-3-3-3-3-320------------2-----|
A|---------------30-0-0--03-5-53---|
E|----------------------3-------53-|

G|---------------------------------|
D|---------------------------2-----|
A|----------------0-0-0--03-5-53---|
E|1-1-1-1-1-1-1-1-------3-------53-|

G|---------------------------------------------------|
D|-------------------------------5-5-5-5/7-97-------7|
A|1-1-3031--------------------5h7-7----------1087-10-|
E|--------1-1-30313-3-3--3-33/-----------------------|

  Rest

  Chorus 3:29
G|--------------------------------------------------------|
D|-----------------------------------2----2-5-5-----------|
A|3--3-2----------------------3--3-5---5------------------|
E|-------0-3--x0-3--0-3-5--1--------------------0-3-5--1--|

G|------------------------------|
D|---------------------------3/5|
A|3--3-2------------------------|
E|-------0-3--x0-3--0-3-5-0-1---|

  Post Chorus
G|--------------------------------------------------------|
D|--------------------------------------------------------|
A|3--3-2----------------------3--3-2------------------3/8-|
E|-------0-3--x0-3--0-3-5--1---------0-3--x0-3--0-3-5-----|

G|-------------------------------|
D|-------2-5-5-2-5-5---5-77------|
A|3--3-2-------------7-----778875|
E|-------------------------------|

G|-----------------------------|
D|-------------------5h7-------|
A|3--3-2----------------7788753|
E|-------0-3--x0-3-------------|


Enjoy :)



| /  slide up
| \  slide down
| h  hammer-on
| p  pull-off
| ~  vibrato
| +  harmonic
| x  Mute note
===============================================================================
            
Submit corrections



        Promises Promises lessons Hard to play? Try these video lessons and learn fast Promises Promises lessons
        
↑ Back to top | Tablatures and chords for acoustic guitar and electric guitar, ukulele, drums are parodies/interpretations of the original songs. You may use it for private study, scholarship, research or language learning purposes only