» » »

Incubus - Look Alive Bass

Artists:  A B C D E F G H I J K L M N O P Q R S T U V W X Y Z # 

Look Alive Bass

(ver. 1) Click to play this song!
Incubus
 Rating:
4/5 (4 votes)


 Look Alive lessons Tabs too difficult? Try these video lessons and learn fast
 
                My first bit of tabs to go online!

So this is Incubus's Look Alive and this version is based on the one from 
Monuments and Melodies Disc 2.

tabs and the fills, but no 
one has made the fill tabs for it so here are the fills to go with the the already 
posted song basics.

Thanks and enjoy.

First fill after the first (1:15) and second (2:19) verses into the chorus:

G|--------------------------------|
D|-13-121212-1010-----------------|
A|----------------1313-1111-1010--|
E|--------------------------------|

The next fill is in the chorus at (3:42):

G|---------1010-88-77---------------|
D|------88------------1010-88-------|
A|-1010-----------------------1010--|
E|----------------------------------|

The next fill comes in at (4:00) instead of the 8's and 15's on the E string:

G|---------------------------|  Followed by the 
D|--1010108-1010108-1010108--|  previous fill but
A|---------------------------|  with an extra set
E|---------------------------|  of 8's first:

G|------------1010-88-77---------------|
D|---------88------------1010-88-------|
A|-88-1010-----------------------1010--|
E|-------------------------------------|

Then the last part of the chorus and finish on a slide up the neck from the 8 on the A string!

Hope that helped,
Bugsy
            
Submit corrections



        Look Alive lessons Hard to play? Try these video lessons and learn fast Look Alive lessons
        
↑ Back to top | Tablatures and chords for acoustic guitar and electric guitar, ukulele, drums are parodies/interpretations of the original songs. You may use it for private study, scholarship, research or language learning purposes only