» » »

Incubus - Here In My Room Bass

Artists:  A B C D E F G H I J K L M N O P Q R S T U V W X Y Z # 

Here In My Room Bass

(ver. 1) Click to play this song!
Incubus
 Rating:
4/5 (4 votes)


 Here In My Room lessons Tabs too difficult? Try these video lessons and learn fast
 
                -----------------------------------------------------------------------------
                        HERE IN MY ROOM - Incubus
-----------------------------------------------------------------------------


Tuning: standard (It's in 5-string cause I play with one)


 Intro (0:00) (Play with the piano)
G|------------------------------------------------------------------|
D|-10----------10------------------10----------13-------------------|
A|-----------------11------------------------------11--------11--11-|
E|------------------------------------------------------------------|
B|------------------------------------------------------------------|

G|------------------------------------------------------------------|
D|-10----------10------------------10--------1013-------------------|
A|-----------------11------11131113----------------11--------11--11-| 
E|------------------------------------------------------------------|
B|------------------------------------------------------------------|
                      (elevens & thirteens)
 Verse (0:27)
G|------------------------------------------------------------------|
D|-10--------10--10----------------10--------1013-------------------|
A|-----------------11------11131113----------------11--------11--11-|
E|------------------------------------------------------------------|
B|------------------------------------------------------------------|
 
G|------------------------------------------------------------------|
D|-10--------10--10----------------10--------1013-------------------|
A|-----------------11------11131113----------------11----11--11--11-|
E|------------------------------------------------------------------|
B|------------------------------------------------------------------|

 Pre-Chorus (0:54)
G|------------------------------------------------------------------|
D|------------------------------------------------------------------|
A|------------------------------------------------------------------|
E|-2-------2-2-----2-------2-2-----2-------2-2-----2-------2-2------|
B|------------------------------------------------------------------|

 Chorus (1:07)
G|------------------------------------------------------------------|
D|-------------------------------------------------------------3-5--|
A|-3-------3-3-6-------------------------------------------3-6------|
E|-----------------4------44-4---4-1------11-1---3-4-----6----------|
B|------------------------------------------------------------------|
                                         (ones)
G|------------------------------------------------------------------|
D|-------------------------------------------------------------3-5--|
A|-3-------3-3-6-------------------------------------------3-6------|
E|-----------------4------44-4---4-1------11-1---3-4-----6----------|
B|------------------------------------------------------------------|

G|------------------------------------------------------------------|
D|-------------------------------------------------------------3-5--|
A|-3-------3-3-6-----------------6-8------88-8---8---------3-6------|
E|-----------------4------44-4---------------------4-----6----------|
B|------------------------------------------------------------------|

G|------------------------------------------------------------------|
D|-------------------------------------------------------------3-5--|
A|-3-------3-3-6-----------------6-8------88-8---8---------3-6------|
E|-----------------4------44-4---------------------4-----6----------|
B|------------------------------------------------------------------|

 Verse (2:02)
G|------------------------------------------------------------------|
D|------------------------------------------------------------------|
A|-3---------------x------------------------------------------------|
E|---------------------------------8-------8---11--4-----------6----|
B|------------------------------------------------------------------|
   
G|------------------------------------------------------------------|
D|------------------------------------------------------------------|
A|------------------------------------------------------------------|
E|-8-------8-8-11--4-------4-4-11--8-------8-8-11--4-------4-4---6--|
B|------------------------------------------------------------------|

 Pre-Chorus (2:28)
G|------------------------------------------------------------------|
D|------------------------------------------------------------------|
A|------------------------------------------------------------------|
E|-2-------2-2-----2-------2-2-----2-------2-2-----2-------2-2------|
B|------------------------------------------------------------------|

 Chorus (2:42)
G|------------------------------------------------------------------|
D|-------------------------------------------------------------3-5--|
A|-3-------3-3-6-------------------------------------------3-6------|
E|-----------------4------44-4---4-1------11-1---3-4-----6----------|
B|------------------------------------------------------------------|
                                         (ones)
G|------------------------------------------------------------------|
D|-------------------------------------------------------------3-5--|
A|-3-------3-3-6-------------------------------------------3-6------|
E|-----------------4------44-4---4-1------11-1---3-4-----6----------|
B|------------------------------------------------------------------|

G|------------------------------------------------------------------|
D|-------------------------------------------------------------3-5--|
A|-3-------3-3-6-----------------6-8------88-8---8---------3-6------|
E|-----------------4------44-4---------------------4-----6----------|
B|------------------------------------------------------------------|

G|------------------------------------------------------------------|
D|-------------------------------------------------------------3-5--|
A|-3-------3-3-6-----------------6-8------88-8---8---------3-6------|
E|-----------------4------44-4---------------------4-----6----------|
B|------------------------------------------------------------------|

 Outro (3:36)
G|------------------------------------------------------------------|
D|-------------3-5-------------3-5-------------3-5-------------3-5--|
A|---------3-6-------------3-6-------------3-6-------------3-6------|
E|-4-----6---------4-----6---------4-----6---------4-----6----------|
B|------------------------------------------------------------------|

G|------------------------------------------------------------------|
D|-------------3-5-------------3-5-------------3-5-------------3-5--|
A|---------3-6-------------3-6-------------3-6-------------3-6------|
E|-4-----6---------4-----6---------4-----6---------4-----6----------|
B|------------------------------------------------------------------|

G|------------------------------------------------------------------|
D|-------------3-5-------------3-5----------------------------------|
A|---------3-6-------------3-6--------------------------------------|
E|-4-----6---------4-----6---------4--------------------------------|
B|------------------------------------------------------------------|
   slow down in the end

| /  slide up
| \  slide down
| h  hammer-on
| p  pull-off
| ~  vibrato
| +  harmonic
| x  Mute note

=============================================================================
I dedicate this song to a girl who comes and visits me from time to time.
For now we can't be together, but hopefully in the future.
I'm waiting for that day.
=============================================================================
            
Submit corrections



        Here In My Room lessons Hard to play? Try these video lessons and learn fast Here In My Room lessons
        
↑ Back to top | Tablatures and chords for acoustic guitar and electric guitar, ukulele, drums are parodies/interpretations of the original songs. You may use it for private study, scholarship, research or language learning purposes only