» » »

Incubus - Circles Bass

Artists:  A B C D E F G H I J K L M N O P Q R S T U V W X Y Z # 

Circles Bass

(ver. 3) Click to play this song!
Incubus
 Rating:
4/5 (4 votes)


 Circles lessons Tabs too difficult? Try these video lessons and learn fast
 
                -------------------------------------------------------------------------------
		     Circles - Incubus
-------------------------------------------------------------------------------


Tuning: Drop D
  
  Intro
G|-----------------------------|   |-----------------------------|
D|-----------------------------|   |-----------------------------|
A|------5--------------3-3-3-3-|   |------1----------------------|
D|-0--3----0--3--0-3-0---------|x3 |-0--3----0--3--0-3-0-5-5-5-5-|

G|-------------------------------------|
D|-------------5---------------------5-|
A|-------------------------------------|
D|-0-0--0-0-0------0-0--0-0-0--0-0-0---|
  Verse
G|-----------------------------------------------------|
D|-----------------------------------------------------|
A|-----------------------------------------------------|
D|-0-0---12\---0-0---0/12\---15-15\--10-10\--6-6\--3-3-|x3

G|----------------------------------------------------------|
D|----------------------------------------------------------|
A|----------------------------------------------------------|
D|-1---1---/10-10-10-10-10-10---1---1-1--/10-10-10-10-10-10-|x2
  Chorus x2
G|-------------------------------|   |------------|
D|-------------------------------|   |------------|
A|-------------------------------|   |------------|
D|-11h12--11h12--11h12--11h12-10-|x3 |-3--3/--8-8-|
  Verse
G|-----------------------------------------------------|
D|-----------------------------------------------------|
A|-----------------------------------------------------|
D|-0-0---12\---0-0---0/12\---15-15\--10-10\--6-6\--3-3-|x3

G|----------------------------------------------------------|
D|----------------------------------------------------------|
A|----------------------------------------------------------|
D|-1---1---/10-10-10-10-10-10---1---1-1--/10-10-10-10-10-10-|x2
  Chorus x2
G|-------------------------------|   |------------|
D|-------------------------------|   |------------|
A|-------------------------------|   |------------|
D|-11h12--11h12--11h12--11h12-10-|x3 |-3--3/--8-8-|
  Bridge
G|---------------------------------|
D|---------------------------------|
A|---------------------------------|
D|-5---0---3---------5---0---8---1-|x3

G|----------------------------------------------------------|
D|----------------------------------------------------------|
A|----------------------------------------------------------|
D|-1---1---/10-10-10-10-10-10---1---1-1--/10-10-10-10-10-10-|x2
  Chorus
G|-------------------------------|   |------------|
D|-------------------------------|   |------------|
A|-------------------------------|   |------------|
D|-11h12--11h12--11h12--11h12-10-|x3 |-3--3/--8-8-|
  Outro
G|-----------------------------|   |-----------------------------|
D|-----------------------------|   |-----------------------------|
A|------5--------------3-3-3-3-|   |------1----------------------|
D|-0--3----0--3--0-3-0---------|x3 |-0--3----0--3--0-3-0-5-5-5-5-|

G|-------------------------------------|
D|-------------5---------------------5-|
A|-------------------------------------|
D|-0-0--0-0-0------0-0--0-0-0--0-0-0---|x2

| /  slide up
| \  slide down
| h  hammer-on
| p  pull-off
| ~  vibrato
| +  harmonic
| x  Mute note
=======================================================================
            
Submit corrections



        Circles lessons Hard to play? Try these video lessons and learn fast Circles lessons
        
↑ Back to top | Tablatures and chords for acoustic guitar and electric guitar, ukulele, drums are parodies/interpretations of the original songs. You may use it for private study, scholarship, research or language learning purposes only