» » »

Ill Nino - No Murder Bass

Artists:  A B C D E F G H I J K L M N O P Q R S T U V W X Y Z # 

No Murder Bass

(ver. 1) Click to play this song!
Ill Nino
 Rating:
4/5 (4 votes)


 No Murder lessons Tabs too difficult? Try these video lessons and learn fast
 
                Band- Ill Nino
Song- No Murder

Tuning: C G C F

Intro:
|-------------------------------|
|-------------------------------|
|-------------------------------|
|----------------------0--------|


Main riff 1: x7

|-----------------|
|-----------------|
|-----------------|
|-3-2-0-2-0-2-0-2-|


Main riff 2: x9

|-----------------|
|-----------------|
|-----------------|
|-3-2-0-2-0-0-0-0-|


Verse part 1: x8

|------------|
|------------|
|------------|
|-0—-0—0---0-|


Verse part 2: x8

|---------|
|---------|
|---------|
|-3-—3—-2-|


Pre-Chorus: x4

|----------------|
|----------------|
|----------------|
|-3-2-0-2-0-2----|


Chorus: x4

|-------------------------------------------------------------------------|
|-------------------------------------------------------------------------|
|-------------------------------------------------------------------------|
|-7-7-7-7-7-7-7-7-10-10-10-10-10~------10-0-0-0-0-0-0-0-0-3-3-3-3-3~------|


Main riff 1: x7

Main riff 2: x9

Verse part 1: x8

Verse part 2: x8

Pre-chorus: x4

Chorus: x8

Main riff 1: x8

Outro: x1

|-------------|
|-------------|
|-------------|
|-3-2-0-2-0-2-|
            
Submit corrections



        No Murder lessons Hard to play? Try these video lessons and learn fast No Murder lessons
        
↑ Back to top | Tablatures and chords for acoustic guitar and electric guitar, ukulele, drums are parodies/interpretations of the original songs. You may use it for private study, scholarship, research or language learning purposes only