» » »

I Fight Dragons - No Kontrol Bass

Artists:  A B C D E F G H I J K L M N O P Q R S T U V W X Y Z # 

No Kontrol Bass

(ver. 1) Click to play this song!
I Fight Dragons
 Rating:
4/5 (4 votes)


 No Kontrol lessons Tabs too difficult? Try these video lessons and learn fast
 
                -------------------------------------------------------------------------------
No Kontrol - I Fight Dragons
-------------------------------------------------------------------------------
Tuning: Standard

0:10 Intro: Oh, oh, oh...
G|---------------------------------------------------------------------------|
D|---------------------------------------------------------------------------|
A|-------------------------4^------------------------------------------------|
E|-5--5--0-5--5--0-5--5--0-----5--5--0-5--5--0-5--5--0-2^-0------------------|

Verse 1: They say the root of...
G|---------------------------------------------------------------------------|
D|---------------------------------------------------------------------------|
A|--------12--12----------4^---------12--12----------------------------------|
E|-5--5/----------12\--0------5--5/----------12\--0--2^----------------------|

Repeat x1

Chorus: There's no control...
G|---------------------------------------------------------------------------|
D|---------------------------------------------------------------------------|
A|-3--3--3--3--5--5--5--5--------------------------------------------4--4--4-|
E|-------------------------5--0-5--0-5--0-5--0-5-0--5-0--3--3--3--3----------|

G|---------------------------------------------------------------------------|
D|---------------------------------------------------------------------------|
A|-4-------------------------------------------------------------------------|
E|----5--0-5--0-5--0-5--0-5-0--5-0-------------------------------------------|

Verse 2: (repeat verse 1)
Chorus: (repeat)
Guitar solo: (repeat same bass line as verses)

Bridge: Everyone says walk...

G|---------------------------------------------------------------------------|
D|---------------------------------------------------------------------------|
A|-5--5--0-9--9--0-7--7--0-7-9-7-0-3--3--0-7--7--0-5--5--0-5-7-5-0-2--2--2--2|
E|---------------------------------------------------------------------------|

G|------------9-9-9-9-9-9----------------------------------------------------|
D|-----2--2/-----------------------------------------------------------------|
A|--2------------------------------------------------------------------------|
E|---------------------------------------------------------------------------|

Break from 1:33 - 1:46
Chorus: (repeat x2 except the last 12 notes shown aren't played at the end of last chorus)
Outro: (same as intro x2 except add a note at the end, which is a slide down from the 
5th fret on E)

As with all tabs, listen along with the song for timing.
| /  slide up
| \  slide down
| ^  Bend note
            
Submit corrections



        No Kontrol lessons Hard to play? Try these video lessons and learn fast No Kontrol lessons
        
↑ Back to top | Tablatures and chords for acoustic guitar and electric guitar, ukulele, drums are parodies/interpretations of the original songs. You may use it for private study, scholarship, research or language learning purposes only