» » »

I Fight Dragons - Dont You Tabs

Artists:  A B C D E F G H I J K L M N O P Q R S T U V W X Y Z # 

Dont You Tabs

(ver. 2) Click to play this song!
I Fight Dragons
 Rating:
4/5 (4 votes)


 Dont You lessons Tabs too difficult? Try these video lessons and learn fast
 
                *-important update-*
Packy (IFDs guitar-player) submitted his version of this solo, i recommend you 
check out his version (there should only be one more beside my tab, so it wont be 
hard to find :P )


This is the solo from Don't You by I Fight Dragons
It surely isnt 100% correct, so feel free to post any suggestions 
how I can improve it in the comments. 
This tab is from the song as it was first released on IFDs mailing list,
there is a new version with a slightly different solo (I'll take a look at
that and update the tab)

         
e|---------7h8h10-10---------7h8h10-10/12\10-----------7h8h10--12-14---|
B|---8h10--------------8h10----------------------8h10------------------|
G|---------------------------------------------------------------------|
D|---------------------------------------------------------------------|
A|---------------------------------------------------------------------|
E|---------------------------------------------------------------------|
 
|-12-14-12-----15--15--14—10-12-10-7--------------------------------|
|---------------------------------------10h12--12-10----—-----------|
|----------------------------------------------------12-11-9-11-9-7-|
|-------------------------------------------------------------------|
|-------------------------------------------------------------------|
|-------------------------------------------------------------------|

|------------------------------------|
|---5--5h7-5h7h8—7h8h10-7h8h10-12----|
|-7----------------------------------|
|------------------------------------|
|------------------------------------|
|------------------------------------|

|---------------------------12--15-17-12-15----|
|-12-13p12p10--13-15-13-15---------------------|
|----------------------------------------------|
|----------------------------------------------|
|----------------------------------------------|
|----------------------------------------------|

|---17p15p12—17p15h17p15-17p15p12—-19p17h19p17-19p17p15-19p17h19p17--|
|--------------------------------------------------------------------|
|--------------------------------------------------------------------|
|--------------------------------------------------------------------|
|--------------------------------------------------------------------|
|---*FAST*-----------------------------------------------------------|

|---17p15p12—17p15h17p15-17p15p12—-19p17h19p17-19p17p15-19p17h19p15--|
|--------------------------------------------------------------------|
|--------------------------------------------------------------------|
|--------------------------------------------------------------------|
|--------------------------------------------------------------------|
|---*FAST*-----------------------------------------------------------|
            
Submit corrections



        Dont You lessons Hard to play? Try these video lessons and learn fast Dont You lessons
        
↑ Back to top | Tablatures and chords for acoustic guitar and electric guitar, ukulele, drums are parodies/interpretations of the original songs. You may use it for private study, scholarship, research or language learning purposes only