» » »

Ice Nine Kills - The Greatest Story Ever Told Tabs

Artists:  A B C D E F G H I J K L M N O P Q R S T U V W X Y Z # 

The Greatest Story Ever Told Tabs

(ver. 2) Click to play this song!
Ice Nine Kills
 Rating:
3.7/5 (6 votes)
                This isn't complete yet, it's rhythm and lead upto the chorus only, 
some of the second verse is the same anyway, but I'll finish it soon. 
Rhythm guitar is tabbed after the lead. Drop C.
What I forgot to mention was this is the ALBUM version, not EP version,
So compare it to the album one before rating please. Thanks.

LEAD GUITAR:

INTRO
|------17-18-17-15-----------17-18-17-20-18-17-15------|
|-15-18-----------18-17-15-18--------------------18-18-|
|------------------------------------------------------|
|------------------------------------------------------|
|------------------------------------------------------|
|------------------------------------------------------|
|------------------------------------------------------|

|---------------------------------17----17----------17--------|
|-13h15p13--------13h15p13----------18----18------17--18-17---|
|---------14h15p14--------14h15p14----19----19--18---------19-|
|---------------------------------------------19--------------|
|-------------------------------------------------------------|
|-------------------------------------------------------------|

|---------------------------------------|
|-----------------------10--------------|
|-----------------------10--------------|
|------------------------8-0--88-----77-|
|------------------------8-0--88-----88-|
|-[rhythm guitar-7-888-0---0--88-888-77-|
    plays here]
|----------------------------------|
|----------------------------------|
|----------------------------------| x2
|-7--7--7h8p7-5---7--7--------7----|
|--8--8--------8---8--8--------8p5-|
|---0--0--------0---0--0-5h7h8-----|

|--------------------------------------------------------|
|---[9][9][9][9]-----------------------------------------|
|---[9][9][9][9]-----------------------------------------|
|-10------------10-10101010/-----------------------------|
|--8-------------8-10101010/--7------0-0------0----------|
|--8-------------8-10101010/--7-8888-0-0-8888-0-7-8-8-10-|

|----------10-------------------------------------------------|
|-------10-10-------------------------------------------------|
|--10---10-10-------------------------------------------------|
|-8--888--8--8----------------7*b/8*b-------------------------|
|-8--888--8--8------------------------7------0-00000----------|
|-8--888--8--8-[rhythm guitar]--------7-8888-0-00000-7-8-8-10-|
     ...         plays here                    .....
|-------13------13------13------13------13------13------12------12-|
|---13------13------13------13------10------10------13------13-----|
|-10--10--10--10--10--10--10--10--10--10--10--10--10--10--10--10---|
|------------------------------------------------------------------|
|------------------------------------------------------------------|
|------------------------------------------------------------------|

|---13---131313------------------------------------------|
|---10---101010------------------------------------------|
|---10---101010------------------------------555-333-222-|
|-88---88-------888-8-7-5-000-555-777-555-555------------|
|-88---88-------888--------------------------------------|
|-88---88-------888--------------------------------------|

|------------|
|------------|
|------------|
|------------|
|-8-8-----77-|
|-8-8-777777-|
      .....

CHORUS
|--------------------------------------------------------------|
|--------------------------------------------------------------|
|-10101010101010-17-1414-121212-14-17171717-10-12-141414141414-|
|--x-x-x-x-x-x-x--x--x-x--x-x-x--x--x-x-x-x--x--x--x-x-x-x-x-x-|
|--8-8-8-8-8-8-8-15-1212-101010-12-15151515--8-10-121212121212-|
|--------------------------------------------------------------|

|--------------------------------------------------------|
|--------------------------------------------------------|
|-------10------10------9------9----10-12-10----9-10-7/--|
|--------------------------------------------------------|
|---12------12------10-----10-----88--8--8--8-77-7--7----|
|-12--12--12--12--10--10-10--10-10-----------------------|
  ......  ......  ...... ......   ..  .  .  . .. .  .


-----------------------------------------------------------------------------
RHYTHM GUITAR

INTRO
|-------------------------------------------------|
|--------------------------10---------------------|
|-3-6--------3-------------10---------------------|
|-3-7-8~-8-7-3-7-0----------8---------------88-77-|
|-5-4-8~-8-7-5-7-0----------8---------------88-77-|
|-----8~-8-7---7-0--7-888-0---[lead guitar]-88-77-|
                    . ... .     plays here
VERSE 1
|----------------------------------------------------|
|----------------------------------------------------|
|----------------------------------------------------|
|----------------------------------------------------|
|---------------------0----------------------5-7-7-8-|
|-000000-777777-0000000--000000-888888-0000005-7-7-8-|
  ...... ...... ......   ...... ...... ....... . . .
|-----------------------------------------------------|
|-----------------------------------------------------|
|-----------------------------------------------------|
|-10~--------10-10101010/-----------------------------|
|--8~---------8-10101010/--7------0-0------0----------|
|--8~---------8-10101010/--7-8888-0-0-8888-0-7-8-8-10-|

|----------10-----------------------------------------|
|-------10-10-----------------------------------------|
|--10---10-10-----------------------------------------|
|-8--888--8--8-101010/--------------------------------|
|-8--888--8--8-101010/--------7------0-00000----------|
|-8--888--8--8-101010/--------7-8888-0-00000-7-8-8-10-|
     ...                               .....
|------------------------------------------------------------------|
|------------------------------------------------------------------|
|------------------------------------------------------------------|
|-----------------------------------------------------------8-8-88-|
|-131313131313131313-1515-1313-1212-1010-888888888-77777777-8-8-88-|
|--0-0-0-0-0-0-0-0-0--0-0--0-0--0-0--0-0-000000000-00000000-8-8-88-|

|-------------------------------------------------------|
|---10---101010-----------------------------------------|
|---10---101010-----------------------------------------|
|-88---88-------888-----------555-777-555---333-555-333-|
|-88---88-------888-10-8-7-555-----------333------------|
|-88---88-------888-------------------------------------|

|------------|
|------------|
|------------|
|------------|
|-8-8-----77-|
|-8-8-777777-|
      .....
|---------------------------------------------|
|---------------------------------------------|
|---------------------------------------------|
|---------------------------------------------|
|-00000000-88888888-33333333-1010101010101010-|
|-00000000-88888888-33333333-1010101010101010-|

|-----------------------------------------------|
|-----------------------------------------------|
|-----------------------------------------------|
|-----------------------------------------------|
|-0000000000-8888888888-------------------------|
|-0000000000-8888888888-33333333333-77777777777-|
            
Submit corrections

↑ Back to top | Tablatures and chords for acoustic guitar and electric guitar, ukulele, drums are parodies/interpretations of the original songs. You may use it for private study, scholarship, research or language learning purposes only