» » »

Iced Earth - Something Wicked Bass

Artists:  A B C D E F G H I J K L M N O P Q R S T U V W X Y Z # 

Something Wicked Bass

(ver. 1) Click to play this song!
Iced Earth
 Rating:
4/5 (4 votes)


 Something Wicked lessons Tabs too difficult? Try these video lessons and learn fast
 
                (Part1)
Something Wicked, Iced Earth

Standard Tuning, 4/4

Riff_1

|----------------|----------------|----------------|----------------|
|----------------|----------------|----------------|----------------|
|----------------|----------------|9-99999---------|----------------|
|4-44444---------|----------------|----------------|----------------|

|----------------|----------------|----------------|----------------|
|----------------|----------------|----------------|----------------|
|----------------|----------------|----------------|----------------|
|6-66666---------|----------------|5-55555---------|----------------|

Riff_2

|----------------|----------------|----------------|----------------|
|----------------|----------------|----------------|----------------|
|------------7---|7---7---6---6---|----------------|----------------|
|4---4-4-4-------|----------------|4---4---4---4---|4---4---4---4---|  x2

|----------------|----------------|----------------|----------------|
|----------------|----------------|----------------|----------------|
|------------7---|7---7---6---6---|----------------|----------------|
|5---5-5-5-------|----------------|5---5---5---5---|5---5---5---5---|  x2

Riff_3

|----------------|----------------|----------------|----------------|
|----------------|----------------|----------------|----------------|
|4-----4-----4---|--------4---4---|----------------|----------------|
|----------7-----|----------------|7-----7---5-7---|--------7---7---|

|----------------|----------------|----------------|----------------|
|----------------|----------------|----------------|----------------|
|----------------|----------------|----------------|----------------|
|5-----5---4-5---|--------5---5---|4-----4---2-4---|--------4---4---| 

Riff_4

|----------------|----------------|
|----------------|----------------|
|----------------|----------------|
|4-444-2-222-5-55|5-2-222-4-2-4-2-|

Riff_5

|----------------|
|----------------|
|----------------|  
|4-4-4-4-4-4-4-4-|  listen to the song for number of times played per part

|----------------|  He does some triplets in there which you can 
|----------------|  follow or not.
|----------------|
|7-7-7-7-7-7-7-7-|

Riff_6

|----------------|----------------|----------------|----------------|
|----------------|----------------|----------------|----------------|
|----------------|----------------|----------------|----------------|
|4-444-4-4-------|----------------|2-222-2-2-------|----------------|

|----------------|----------------|----------------|----------------|
|----------------|----------------|----------------|----------------|
|----------------|----------------|----------------|----------------|
|0-000-0-0-------|----------------|6-666-6-6-------|----------------|

Riff_7

|----------------|
|----------------|
|----------------|
|4-4-------------| until end



Order

Riff_1
Riff_2 X2
Riff_3 X2
Riff_4 X4
Riff_5
Riff_6 X2
Riff_4 X4
Riff_5
Riff_6 x2
Riff_4 X4
Riff_7
            
Submit corrections



        Something Wicked lessons Hard to play? Try these video lessons and learn fast Something Wicked lessons
        
↑ Back to top | Tablatures and chords for acoustic guitar and electric guitar, ukulele, drums are parodies/interpretations of the original songs. You may use it for private study, scholarship, research or language learning purposes only